Ads

Ending Theme (Legend of Zelda) Guitar Tab

Submitted: Dec 14, 2013 by BowlOfPotatoes (Last updated: Dec 20, 2013)

5
Average: 5 (1 vote)
Download | Listen
Game: Legend of Zelda
Composer(s): Koji Kondo
Style: Alternate picking, Transcription
Series: Legend of Zelda

AutoScroll: Slow | Medium | Fast
Ending Theme
Legend of Zelda
Composed by Koji Kondo
Tabbed by BowlOfPotatoes
12/14/13

First tab!
Any helpful comments or tips would be greatly appreciated.

E|--3-----------------7-----5--------5--3-----------5--------5--4-------------------------|
B|-----------5--4-----------------5-----------3--5--------6-----------3--6--5--------5--3-|
G|--------5--------------4-----5-----------5-----------5-----------5--------------5-------|
D|-----5-----------5-----------------------------------------------------------5----------|
A|----------------------------------------------------------------------------------------|
E|----------------------------------------------------------------------------------------|
                                                                                          |
E|-----------3-----------------7-----5--------5--3-----------5--------5--4----------------|
B|--------3-----------5--4-----------------5-----------3--5--------6-----------3--6--5----|
G|-----4-----------5--------------4-----5-----------5-----------5-----------5-------------|
D|--7-----------5-----------5-----------------------------------------------------------5-|
A|----------------------------------------------------------------------------------------|
E|----------------------------------------------------------------------------------------|
                                                                                          |
E|--------------------3--------------7----5-----------------5------7--10--8----5----------|
B|-----5--3--------3---------5--4------------------8------------------------------8-----5-|
G|--5-----------4-------------------------------------------------------------------------|
D|-----------7----------------------------------------------------------------------------|
A|----------------------------------------------------------------------------------------|
E|----------------------------------------------------------------------------------------|
                                                                                          |
E|-----------3--------------7----5-----------------5------7--10--8----10--12-----------12-|
B|------------------5--4------------------8-----------------------------------------------|
G|--7-------------------------------------------------------------------------------------|
D|----------------------------------------------------------------------------------------|
A|----------------------------------------------------------------------------------------|
E|----------------------------------------------------------------------------------------|

E|--12--10--------------------------------------------------------------------------------|
B|------------13--------12--10------------------------------------------------------------|
G|------------------------------12----------14----------------------11--12----------------|
D|--------------------------------------14--------14----12--14--15------------14----------|
A|----------------------------------------------------------------------------------15----|
E|----------------------------------------------------------------------------------------|
Login or Register to remove this ad.