Ads

Windfall Island (Legend of Zelda: The Wind Waker) Guitar Tab

Submitted: Sep 17, 2013 by Alfa_ice

5
Average: 5 (9 votes)
Download | Listen
Game: Legend of Zelda: The Wind Waker
Composer(s): Koji Kondo, Hajime Wakai, Toru Minegishi, Kenta Nagata
Style: Arrangement, Fingerstyle
Series: Legend of Zelda

AutoScroll: Slow | Medium | Fast
                                Windfall Island                                 


The Legend of Zelda: The Wind Waker
Tabbed by: Alfa_ice
Standard tuning: EADGBE (Capo 5)
Difficulty: Very hard
115bpm


              |--3-|                                         
     E  E  E  S  S S E  E  E  E     E  E  E  E  E  E  E  E   
E||--0---------------------------|--------------------------|
B||--0--------0h-2-0-------------|-----------0--------------|
G||------------------2-----------|--1-----------2-----------|
D||------------------------------|--2-----------------------|
A||-----2-----2--L------2-----2--|-----2-----------2-----2--|
E||--0---------------0-----------|--0-----------0-----------|


    ^                                                   
    E  E  E  E  E  E  E  E     E  E  E  E  E  E  E  E   
|---4--------4--0-----------|--------------------------|
|------------------------0--|--------------0--------0--|
|*--4-----------4-----------|--6--L-----6--------------|
|*--------2--------2--------|--------7-----6-----------|
|------2--------------------|-----7-----------7--------|
|---0-----------4-----------|--5--------5--4--------4--|


  E  E  E  E  E  E  E  E     E  E  E  E  E  E  E  E   
--------------------------|--------------------------|
--------------------------|--------------------------|
--2-----------------------|--1-----2-----4-----------|
-----2-----2--4--------4--|--2-----2-----2-----------|
--------------2--6-----2--|-----2-----2-----2-----2--|
--2--------2--------------|--0-----2-----4-----------|


  ^                                                   
  E  E  E  E  E  E  E  E     E  E  E  E  E  E  E  E   
--4--------4--0-----------|--------------------------|
-----------------------0--|--------------0--------0--|
--4-----------4-----------|--6--L-----6--------------|
--------2--------2--------|--------7-----6-----------|
-----2--------------------|-----7-----------7--------|
--0-----------4-----------|--5--------5--4--------4--|


                             ^                                                  
  E  E  E  E  E  E  E  E     E  E  E  E  E  Q    E     E  E  E  E  E  E  E  E   
--------------------------|-------------------------|--0--L--------4--L-----0--|
--------------------5-----|--5--------2--5-------0--|-----------0--------------|
--3--------3--2-----------|--2-----2----------------|--------------------------|
-----2-----------2-----2--|-----4-------------------|--------2--------2--------|
--------------------------|--2--------2-------------|-----2--------------------|
--3--------3--2--------2--|-------------------------|--0--L--------4-----------|


  E  E  E  E  E  S S S S S S    E  E  E  E  E  E  E  E   
--7--------L-----5-4-----4-L-|--5-----L--2-----------5--|
--------------0------7-------|--------------4-----4-----|
-----------6-----------------|-----------------4--------|
--7-----7--------------------|-----2-----------4--------|
-----7-----------------------|--------------2-----------|
--5--------5--4----------4-L-|--2--------2--------------|


  E  E  E  E  E  E  E  E     E  E  E  E  E  E  E  E   
--4-----L-----------------|--0--L--------4--L-----0--|
-----------5-----------0--|-----------0--------------|
--1-----2-----4--L--------|--------------------------|
--------------------------|--------2--------2--------|
-----2-----2-----2-----2--|-----2--------------------|
--0-----2-----4-----------|--0--L--------4-----------|


  E  E  E  E  E  S S S S S S    E  E  E  E  E  E  E  E   
--7--------L-----5-4-0-------|-----------0--------------|
--------------0----------0-L-|--------------------5-----|
-----------6-----------------|--3-----L-----2--L--------|
--7-----7--------------------|-----2-----------2--------|
-----7-----------------------|-----------------------2--|
--5--------5--4----------4-L-|--3--------3--2-----------|


  ^                                                                             
  E  E  E  E  E  E  Q       E  E  E  E  E  E  E  E     E  E  E  E  E  E  E  E   
-------------------------|--9-----L-----0--L-----9--|--7-----L-----4-----L-----|
--5--L-----2--4--L-------|--------------------------|--------------------------|
--2-----2----------------|--------------------------|--------------------------|
-----2-------------------|--------------------------|-----------------6-----6--|
--2--------2-------------|-----7-----------7--------|-----7--------4-----------|
-------------------------|--5--------5--5--------5--|--4--------4--------------|


  E  E  E  E  E  E  E  E     E  E  E  E  E  E  E  E   
--4-----L-----4-----L--2--|--0-----------L--------0--|
--------------------------|-----------------------2--|
-----------------2-----2--|--------------------------|
--------------------------|--------2-----------------|
-----4-----4--2-----------|-----2-----2-----2--------|
--2-----------------------|--0-----------0-----------|


  E  E  E  E  E  E  E  E     E  E  E  E  E  E  E  E   
--0--------L-----------2--|--0--------L--------------|
--2--------L--2-----L-----|--------------0--------L--|
--------------------------|--------------------------|
-----2-----------2--------|-----2-----------2--------|
--0--------0--0--------0--|--------------------------|
--------------------------|--4--------4--4--------4--|


  E  E  E  E  E  E  E  E     E  E  E  E  E  E  E  E   
--------------------------|-----------------------0--|
-----------------------0--|-----------------------2--|
--2-----L--1--2-----L-----|--1--------------L--------|
-----------------1--------|--------2-----0--L--------|
-----2--------2--------2--|-----2-----2-----2--------|
--2--------2--------------|--0-----------0-----------|


  E  E  E  E  E  E  E  E     E  E  E  E  E  E  E  E   
--0--------L-----------2--|--0--------L--7-----L-----|
--2--------L--2-----L-----|-----------0--------------|
--------------------------|--------------------------|
-----2-----------2--------|--------------------------|
--0--------0--0--------0--|-----7-----------7--------|
--------------------------|--4--------4--4--------4--|


  E  E  E  E  E  E  E  E     E  E  E  E  E  E  E  E   
--5--------L--4-----L--2--|--0-----------------L-----|
--------------------------|--------------------------|
--------------------------|--------------------------|
-----2-----------4-----4--|-----2-----------2--------|
--------------2-----------|--------------------------|
--2--------2--------------|--0--------0--0--------0--|


                                  ^                  
  E  E  E  E  S  S  E  E  E       W                  
------------------------------||-------------------||
------------------------------||-------------------||
-----------2--1h-2p-1--------*||--1----------------||
--------2--------------4-----*||--2----------------||
-----2--------------------2---||--2----------------||
--0--------0--0--L------------||--0----------------||




Duration Legend
---------------
W - whole
H - half
Q - quarter
E - 8th
S - 16th
. - note dotted
|-n-|  - n-tuplets


Tablature Legend
----------------
L - tied note
h - hammer on
p - pull off
^ - brush up
Login or Register to remove this ad.

4 comments on Windfall Island

ヽ(⌒▽⌒)/ THIS IS AWESOME!!!!!!

ヽ(⌒▽⌒)/

THIS IS AWESOME!!!!!! THANK YOU <3

a bit tricky but I love this

5

a bit tricky but I love this song enough to make it work, thanks so much!

I think changing measure 12

I think changing measure 12 from an open B to a 4 on G will simplify that part slightly, making it possible to keep your index-finger on all strings (like barre) while making the next switches, I actually forgot to change it before posting the tab. Watch my video at that part!

from

E E E E E S S S S S S
--7--------L-----5-4-----4-L-|
--------------0------7-------|
-----------6-----------------|
--7-----7--------------------|
-----7-----------------------|
--5--------5--4----------4-L-|

to

E E E E E S S S S S S
--7--------L-----5-4-----4-L-|
---------------------7-------|
-----------6--4--------------|
--7-----7--------------------|
-----7-----------------------|
--5--------5--4----------4-L-|

I love how your arrangements

I love how your arrangements are so similar to the actual songs. Awesome job!