Ads

Title Theme (Legend of Zelda: The Wind Waker) Guitar Tab

Submitted: Aug 18, 2015 by samisito

5
Average: 5 (2 votes)
Download | Listen
Game: Legend of Zelda: The Wind Waker
Composer(s): Koji Kondo, Hajime Wakai, Toru Minegishi, Kenta Nagata
Style: 2 or more instruments, Alternate picking, Transcription
Series: Legend of Zelda

AutoScroll: Slow | Medium | Fast
Song: Title Theme
Game: Legend Of Zelda - The Wind Waker
Composers:  Koji Kondo, Hajime Wakai, Toru Minegishi, Kenta Nagata
Tabbed by: samisito
Tabbed at: 08/16/2015


Tuning: Standard E Tuning (EADGBe)
Both guitars with capo on 9th fret
The song is in 9/8 at 180 bpm


These chords are played all the time along with the melody
e|-0-----------------|-2-----------------|-0-----------------|-------------------
B|-0-----------------|-------------------|-0-----------------|-0-----------------
G|-2-----------------|-------------------|-2-----------------|-------------------
D|-4-----------------|-------------------|-4-----------------|-------------------
A|-2-----------------|-------------------|-2-----------------|-------------------
E|-------------------|-------------------|-------------------|-------------------


Flute
e|-------------------
B|-------------0---0-
G|-------------------
D|-------------------
A|-------------------
E|-------------------

e|-----0-4---2-0-----|-0-----------------|-------------------|-0---2-4-0-2-------  \
B|-0---------------4-|-----2-----4-0-5-2-|-4---0-----4-2---4-|-------------0---0-   |
G|-------------------|-------2-----------|-------2-----------|-------------------   |
D|-------------------|-------------------|-------------------|-------------------   |
A|-------------------|-------------------|-------------------|-------------------   |
E|-------------------|-------------------|-------------------|-------------------   |
                                                                                    | x2
e|-----0-4---2-0-----|-0-----------------|-----0-2---4-5-2---|-0-----0-----------   |
B|-0---------------4-|-----2-----4-0-5-2-|-4---------------4-|-------------0---0-   |
G|-------------------|-------2-----------|-------------------|-------------------   |
D|-------------------|-------------------|-------------------|-------------------   |
A|-------------------|-------------------|-------------------|-------------------   |
E|-------------------|-------------------|-------------------|-------------------  /
                                     Don't play the last two notes the second time

Violin
e|-------------7---7-
B|-------------------
G|-------------------
D|-------------------
A|-------------------
E|-------------------

e|-5-4---4-----------|-7-0-0-5-0-0-4---4-|-5-7-9-9-5---7---7-|-5-4-0-2-4-2-2---2-  \
B|-----7-----5-4-5-7-|-------------------|-----------7-------|-------------------   |
G|-------------------|-------------------|-------------------|-------------------   |
D|-------------------|-------------------|-------------------|-------------------   |
A|-------------------|-------------------|-------------------|-------------------   |
E|-------------------|-------------------|-------------------|-------------------   |
                                                                                    | x2
e|-0---0-------7-0---|-5-0-0-4---4-2---2-|-0---0-5-7-9---0-4-|-2-------4---7---7-   |
B|---4---7---7-----4-|---------------4---|---2---------9-----|-------7---7-------   |
G|-------------------|-------------------|-------------------|-------------------   |
D|-------------------|-------------------|-------------------|-------------------   |
A|-------------------|-------------------|-------------------|-------------------   |
E|-------------------|-------------------|-------------------|-------------------  /
                                                              First Ending

e|-2---------7-------
B|-------7-----0---0-
G|-------------------
D|-------------------
A|-------------------
E|-------------------
  Second Ending

Login or Register to remove this ad.