Login or Register to remove this ad.

Song of Passing (Legend of Zelda: The Wind Waker) Guitar Tab

Submitted: Mar 05, 2013 by hslesperance

5
Average: 5 (1 vote)
Download | Listen
Game: Legend of Zelda: The Wind Waker
Composer(s): Koji Kondo, Hajime Wakai, Toru Minegishi, Kenta Nagata
Style: 2 or more instruments, Transcription
Series: Legend of Zelda

AutoScroll: Slow | Medium | Fast
Song of Passing
The Legend of Zelda: The Wind Waker
Composed by Kenta Nagata, Hajime Wakai, Toru Minegishi, Koji Kondo
Tabbed by hslesperance
3/5/13


Standard Tuning


  Guitar 1
   Q   Q   H
|---------10----*|
|-10------------*|
|-----10--------*|
|---------------*|
|---------------*|
|---------------*|
|
| Guitar 2
|  Q   Q   H
|--1-------1----*|
|------3--------*|
|---------------*|
|---------------*|
|---------------*|
|---------------*|
|
| Guitar 3
|  W
|---------------*|
|---------------*|
|---------------*|
|---------------*|
|--1------------*|
|---------------*|

W - whole
H - half
Q - quarter
Login or Register to remove this ad.

1 comment on Song of Passing

Masterpiece, I'm actually

5

Masterpiece, I'm actually crying.