Medli's Awakening (Legend of Zelda: The Wind Waker) Guitar Tab

Submitted: Feb 19, 2011 by hslesperance (Last updated: Aug 10, 2012)

5
Average: 5 (1 vote)
Download | Listen
Game: Legend of Zelda: The Wind Waker
Composer(s): Koji Kondo, Hajime Wakai, Toru Minegishi, Kenta Nagata
Style: 2 or more instruments, Transcription
Series: Legend of Zelda

AutoScroll: Slow | Medium | Fast
Medli's Awakening
The Legend of Zelda: The Wind Waker
Composed by Kenta Nagata, Hajime Wakai, Toru Minegishi, Koji Kondo
Tabbed by hslesperance
2/19/11


Standard Tuning


  Q=74
 4/4                                                              2/4

  W           Q   E E Q  Q     W       Q  E E Q  Q     W           +H
|----------|------0---------|--------|----0---------|------------|--------|
|----------|--------1-3--0--|--------|------1-3--0--|------------|--------|
|----------|----------------|--2-----|--------------|--2---------|-(2)----|
|----------|----------------|--------|--------------|------------|--------|
|-0--------|-(0)------------|-(0)----|-0------------|-(0)--------|-(0)----|
|----------|----------------|--------|--------------|------------|--------|
  W          +W               +W       W              +W           +H


  Q=69
 1/4   3/4
                                                                       H.=H
         |3-|  |3-|  |3-|    |3-|  |3-|  |--3--|    |3-|  |3-|  |3-|    |3-|  |--3--|
   Q     Q  E  Q  E  Q  E    Q  E  Q  E  E  E  E    Q  E  Q  E  Q  E    Q  E  E  E  E  Q     +H     Q
|-----|-------14----------|----------------------|-------------------|-------14-----------|--------------|
|-----|----15----17-15-14-|-15-------14----15----|-14-------15----14-|-15-17----15-17-----|--------------|
|-14--|-14----------------|----16-------14----16-|----14-------16----|----------------14--|-(14)---------|
|-----|-------------------|-------17-------------|-------17----------|--------------------|--------------|
|-----|-------------------|----------------------|-------------------|--------------------|--------------|
|-----|-------------------|----------------------|-------------------|--------------------|--------------|


  Q=71
 1/4   3/4

          |3-|  |3-|  |3-|     |3-|  |3-|  |--3--|     |3-|  |3-|   |--3--|
   Q      Q  E  Q  E  Q  E     Q  E  Q  E  E  E  E     Q  E  Q  E   E  E  E    Q    Q   Q
|-----|--------14----------|-----------------------|-----------14-^15-------|--------------|
|-----|-----15----17-15-14-|-^15-------14----15----|-^14-15-17----^14-17-14-|-15--^15------|
|-14--|-^14----------------|-^16-16-------14----16-|-^14----------^14-------|-----^14--14--|
|-----|-^16----------------|-^17----17-------------|-^14--------------------|-----^16------|
|-----|-^17----------------|-^17-------------------|------------------------|-----^17------|
|-----|--------------------|-----------------------|------------------------|--------------|
|
|
|         |3-|  |3-|  |3-|     |3-|  |3-|  |--3--|     |3-|  |3-|   |--3--|
|  Q      Q  E  Q  E  Q  E     Q  E  Q  E  E  E  E     Q  E  Q  E   E  E  E    Q    Q   Q
|-----|--------------------|-----------------------|-----------14--15-------|--------------|
|-----|-----15----17-15----|-----------------15----|--14----17--------------|-15---15------|
|-----|--14----------------|-----16-------------16-|------------------------|----------14--|
|-----|--------------------|--------17-------------|------------------------|--------------|
|-----|--------------------|-----------------------|------------------------|--------------|
|-----|--------------------|-----------------------|------------------------|--------------|


  Q=73

    |-3-|  |3-|  |3-|     |-3-|  |3-|  |--3--|     |-3-|  |--3--|   |-3-|     |-3-|  |--3--|
    Q   E  Q  E  Q  E     Q   E  Q  E  E  E  E     Q   E  Q  S  S   Q   E     Q   E  E  E  E  Q
|---------14----------|------------------------|--------------------------|---------14-----------|
|------15----17-15-14-|-^15--------14----15----|-^14--------15---------14-|-^15--17----15-17-----|
|-^14-----------------|-^16--16-------14----16-|-^14--14-----------16-----|-^14--------------14--|
|-^16-----------------|-^17-----17-------------|-^14-----17---------------|-^16------------------|
|-^17-----------------|-^17--------------------|---------------17-(17)----|-^17------------------|
|---------------------|------------------------|---------------17-(17)----|----------------------|
|
|   |-3-|  |3-|  |3-|     |-3-|  |3-|  |--3--|     |-3-|  |3-|      |-3-|     |-3-|  |--3--|
|   Q   E  Q  E  Q  E     Q   E  Q  E  E  E  E     Q   E  Q  E      Q   E     Q   E  E  E  E  Q
|---------14----------|------------------------|--------------------------|---------14-----------|
|------15----17-15-14-|--15--------14----15----|--14--------15---------14-|--15--17----15-17-----|
|--14-----------------|------16-------14----16-|------14-----------16-----|------------------14--|
|---------------------|---------17-------------|---------17---------------|----------------------|
|---------------------|------------------------|--------------------------|----------------------|
|---------------------|------------------------|--------------------------|----------------------|
|
|
|   H.                   +H.                      +H.                        +H.
|---------------------|------------------------|--------------------------|----------------------|
|---3-----------------|--(3)-------------------|--(3)---------------------|--(3)-----------------|
|---------------------|------------------------|--------------------------|----------------------|
|---0-----------------|--(0)-------------------|--(0)---------------------|--(0)-----------------|
|---------------------|------------------------|--------------------------|----------------------|
|---------------------|------------------------|--------------------------|----------------------|


                                                                           Q=69                     Q=126

    |-3-|  |3-|  |3-|     |-3-|  |3-|  |--3--|     |-3-|  |3-|   |--3--|
    Q   E  Q  E  Q  E     Q   E  Q  E  E  E  E     Q   E  Q  E   E  E  E    Q      H       W          W
|---------14----------|------------------------|------------14-^15-------|--------------|-----------|------|
|------15----17-15-14-|-^15--------14----15----|-^14--15-17----^14-17-14-|-15----^15----|-----------|------|
|-^14-----------------|-^16--16-------14----16-|-^14-----------^14-------|-------^14----|-----------|------|
|-^16-----------------|-^17-----17-------------|-^14---------------------|-------^16----|-----------|------|
|-^17-----------------|-^17--------------------|-------------------------|-------^17----|-----------|------|
|---------------------|------------------------|-------------------------|--------------|-----------|------|
|
|   |-3-|  |3-|  |3-|     |-3-|  |3-|  |--3--|     |-3-|  |3-|   |--3--|
|   Q   E  Q  E  Q  E     Q   E  Q  E  E  E  E     Q   E  Q  E   E  E  E    Q      H       W          W
|---------14----------|------------------------|------------14--15-------|--------------|-----------|------|
|------15----17-15-14-|--15--------14----15----|--14--15-17--------17-14-|-15-----15----|-----------|------|
|--14-----------------|------16-------14----16-|-------------------------|--------------|-----------|------|
|---------------------|---------17-------------|-------------------------|--------------|-----------|------|
|---------------------|------------------------|-------------------------|--------------|-----------|------|
|---------------------|------------------------|-------------------------|--------------|-----------|------|
|
|   H.                   +H.                      +H.                      +E  E   H      +H     Q    W
|---5-----------------|--(5)-------------------|--(5)--------------------|-(5)-----5----|-(5)-------|------|
|---3-----------------|--(3)-------------------|--(3)--------------------|-(3)-----3----|-(3)-------|------|
|---------------------|------------------------|-------------------------|---------2----|-(2)-------|------|
|---0-----------------|--(0)-------------------|--(0)--------------------|-(0)-----0----|-(0)-------|------|
|---------------------|------------------------|-------------------------|--------------|-----------|------|
|---------------------|------------------------|-------------------------|--------------|-----------|------|


 3/4

  W           W         W           W        Q.     E  Q     Q    Q   Q     H.           H.
|----------|----------|----------|--------|-18-----17-18--|-17---15------|-15---------|--------|
|----------|----------|----------|--------|---------------|----------18--|------------|-15\----|
|----------|----------|----------|--------|---------------|--------------|------------|--------|
|----------|----------|----------|--------|---------------|--------------|------------|--------|
|----------|----------|----------|--------|---------------|--------------|------------|--------|
|----------|----------|----------|--------|---------------|--------------|------------|--------|
|
|
| Q  Q  Q     H.        Q  Q  Q     H.       Q   Q     Q     H.             Q   Q  Q     H.
|----------|----------|----------|--------|---------------|--------------|------------|--------|
|----------|----------|----------|--------|---------------|--------------|------------|--------|
|----3--0--|-^2-------|----3--0--|-^2-----|------3-----0--|-^2-----------|------3--0--|-^2-----|
|----------|-^3-------|----------|-^3-----|---------------|-^3-----------|------------|-^3-----|
|----------|-^3-------|----------|-^3-----|---------------|-^3-----------|------------|-^3-----|
|-3--------|-^1-------|-3--------|-^1-----|--3------------|-^1-----------|--3---------|-^1-----|



  W           W         W           W        Q.     E  Q     Q.    Q.      H.           +H.
|----------|----------|----------|--------|-18-----17-18--|-20----25----|-22---------|-(22)\----|
|----------|----------|----------|--------|---------------|-------------|------------|----------|
|----------|----------|----------|--------|---------------|-------------|------------|----------|
|----------|----------|----------|--------|---------------|-------------|------------|----------|
|----------|----------|----------|--------|---------------|-------------|------------|----------|
|----------|----------|----------|--------|---------------|-------------|------------|----------|
|
| Q  Q  Q     H.        Q  Q  Q     H.       Q   Q     Q     H.            Q   Q  Q      H.
|----------|----------|----------|--------|---------------|-------------|------------|----------|
|----------|----------|----------|--------|---------------|-------------|------3-----|-^-4------|
|----3--0--|-^2-------|----3--0--|-^2-----|------3-----0--|-^2----------|-^3------3--|-^-5------|
|----------|-^3-------|----------|-^3-----|---------------|-^3----------|------------|-^-4------|
|----------|-^3-------|----------|-^3-----|---------------|-^3----------|-^1---------|-^-5------|
|-3--------|-^1-------|-3--------|-^1-----|--3------------|-------------|------------|----------|



  Q  Q  Q     H.        Q  Q  Q     H.      Q  Q  Q     H.        Q  Q  Q     H.
|----------|----------|----------|--------|----------|----------|----------|--------*|
|----------|-^1-------|----------|-^1-----|----------|-^1-------|----------|-^1-----*|
|----3--0--|-^1-------|----3--0--|-^1-----|----3--0--|-^1-------|----3--0--|-^1-----*|
|----------|-^1-------|----0-----|-^1-----|----------|-^1-------|----------|-^1-----*|
|----------|----------|----------|--------|----------|----------|----------|--------*|
|-3--------|-^4-------|-3--------|-^4-----|-3--------|-^4-------|-3--------|-^4-----*|

\ - slide downwards

W - whole
H - half
Q - quarter
E - 8th
S - 16th
+ - note tied to previous
. - note dotted

Irregular groupings are notated above the duration line
Low melody durations appear below the staff
Login or Register to remove this ad.

1 comment on Medli's Awakening

WOW!

Just Perfect! I've recently refinished wind waker...what a wonderful game and what a wonderful soundtrack. This song is one of the best and your tab is PERFECT!