Makar's Violin (Legend of Zelda: The Wind Waker) Ukulele Tab

Submitted: Feb 03, 2011 by pixelmuzik (Last updated: Feb 03, 2011)

4
Average: 4 (1 vote)
Download | Listen
Game: Legend of Zelda: The Wind Waker
Composer(s): Koji Kondo, Hajime Wakai, Toru Minegishi, Kenta Nagata
Style: Transcription
Series: Legend of Zelda

AutoScroll: Slow | Medium | Fast
Composed By: Koji Kondo
Game: Windwaker
Tabbed by: PixelMuzik (Tim Woina)



A|--2------7-2-2-4--74------2-4-2--------7-2-2-------2----
E|---------------------------------------------------------
C|---------------------------------------------------------
G|-0--0-0--------------2-0-2-------2-0-2-------2-0-2---0-0

A|-7-2-2--4--7-4-------2-2-4--7-7-3-3-2----
E|------------------------------------------------
C|------------------------------------------------
G|---------------2-0-2------------------2-0-----
Login or Register to remove this ad.