Ads

Inside the Pirate Ship (Legend of Zelda: The Wind Waker) Guitar Tab

Submitted: Aug 05, 2016 by Newtman

0
Download | Listen
Game: Legend of Zelda: The Wind Waker
Composer(s): Koji Kondo, Hajime Wakai, Toru Minegishi, Kenta Nagata
Style: Transcription
Series: Legend of Zelda

AutoScroll: Slow | Medium | Fast
Pirates
(Drop C Tuning)

Based on the HD release version, check the mp3 above

e----------------------------------------------------------------------------------------------------------
B----------------------------------------------------------------------------------------------------------
G----------------------------------------------------------------------------------------------------------
D-----------------------------------------------0--1---0--1---0--1--1--0-----------------------------------
A------------------------------------3------3------------------------------3----------0--------------------
C--9----8--9----8--9--9--5--0--------------------------------------------------8----------5---0------------

                                                                             1st ending   2nd ending
---------------------------------------------------------------------------|------------|------------------
---------------------------------------------------------------------------|------------|------------------
---------------------------------------------------------------------------|------------|------------------
----------------------------------------------0--1---0---------------------|------------|------------------
-----------------------------------3------3--------------3----------0---3--|-0----------|------------------
--9----8--9----8--9--9--0--0---------------------------------8-------------|-----0----5-|-8---9----5-------

--------5-----8--7----5--8--7----5------------------------5-----8--7----5--8--7h8p7------------------------
--6--6--------------------------------------------6--6--------------------------------6--------------------
-----------------------------------------------------------------------------------------------------------
-----------------------------------------------------------------------------------------------------------
-----------------------------------------------------------------------------------------------------------
-----------------------------------------------------------------------------------------------------------
Repeat everything above with 2nd ending

-----------------------------------------------------------------------------------------------------------
-----------------------------------------------------------------------------------------------------------
--7--7--7-----------------7--5------5--5--5----------------5--3------7--7--7----------------7--5----10-----
-----------8-----------8---------------------6----------6---------------------8----------8-----------------
--------------8-----8---------------------------6----6---------------------------8----8-----------------8--
-----------------------------------------------------------------------------------------------------------

-----------------------------------------------------------------------------------------------------------
-----------------------------------------------------------------------------------------------------------
-----------------------------------------------------------------------------------------------------------
-----------------------------------------------------------------------------------------------------------
--8--8--8---10---11--------10--10--10---11----13----------13--12-------------------------------------------
-----------------------------------------------------------------------------------------------------------
Login or Register to remove this ad.