Ads

The Great Sea (Legend of Zelda: The Wind Waker) Guitar Tab

Submitted: Oct 01, 2013 by Alfa_ice

4.8
Average: 4.8 (5 votes)
Download | Listen
Game: Legend of Zelda: The Wind Waker
Composer(s): Koji Kondo, Hajime Wakai, Toru Minegishi, Kenta Nagata
Style: Arrangement, Fingerstyle
Series: Legend of Zelda

AutoScroll: Slow | Medium | Fast
                                The Great Sea                                   

The Legend of Zelda: The Wind Waker
Dropped D tuning: DADGBE
Tabbed by: Alfa_ice
Difficulty: Medium



      E  E  E  Q    Q.        E  E  E  Q    Q    E     E  E  E  Q    Q.      
E||---5-------------L------|--5------------------L--|--5-------------L------|
B||------------------------|------------------------|-----------------------|
G||*--7-------------L------|--6------------------L--|--5-------------L------|
D||*--------0-------0------|--------0-------0-------|--------0-------0------|
A||------0-----7-----------|-----0-----7---------0--|-----0-----7-----------|
D||---0-------------L------|--0------------------L--|--0-------------L------|


  E  E  E  Q    Q    E     E  E  E  Q    Q.        E  E  E  Q    Q    E   
--3------------------L--|--2-------------L------|--0------------------L--|
--0------------------L--|--3-------------L------|--2------------------L--|
------------------------|-----------------------|------------------------|
--------0--2----0-------|--------0--2----0------|--------0--2----0-------|
-----0---------------0--|-----0-----------------|-----0---------------0--|
--0------------------L--|--0-------------L------|--0------------------L--|


  E  E  E  Q    Q.        E  E  E  Q    Q    E     S E  S Q    Q.     E   
--0-------------L------|--3------------------L--|--2---------------------|
-----------------------|--1------------------L--|-------3----------------|
--3-------------L------|------------------------|---------2-----------L--|
--------0--2----0------|--------0--2----0-------|------------------------|
-----0-----------------|-----0---------------0--|---------------------0--|
--0-------------L------|--0------------------L--|--0------------------L--|


  H.           S S S S    H.           E  E     H.           E  S S  
---------------------2-|--5---------------L--|--5------------5--3-2-|
--L------------3---3---|--5---------------L--|--3-----------------L-|
--2------------L-2-----|---------------------|----------------------|
-----------------------|---------------------|----------------------|
-------------------0-L-|---------------------|----------------------|
--0----------------L---|--4------------L--0--|--4---------------0-L-|


                                                           |--3--|   
  H.           E  E     H.           E  E     H.           E  E  E   
--3---------------L--|--3---------------L--|--0------------5--5--5--|
--3---------------L--|---------------------|--3------------------L--|
---------------------|---------------------|------------------------|
---------------------|---------------------|------------------------|
---------------------|---------------------|--0---------------L-----|
--5---------------0--|--5---------------2--|---------------------2--|


  H.           E  E     S S S  S Q    Q.     E     S S S  S H        E  E   
--5---------------L--|--------------------------|--------------------0--L--|
--3---------------L--|--------------------------|--------------------------|
---------------------|--4---4h-6-7-----------L--|--4---4h-6-7-----------L--|
---------------------|--------------------------|--------------------------|
--0------------L-----|--------------------------|--------------------------|
------------------0--|--5-------------L------0--|--5-----------------L--0--|


  H.           E  E     H.           E  E     S S S  S Q    Q.     E   
---------------0--L--|---------------------|--------------------------|
--3------------------|--3---------------L--|--0---0h-2-3-----------L--|
---------------------|--2---------------L--|--------------------------|
---------------------|---------------------|--------------------------|
---------------------|---------------------|--------------------------|
--4------------L--0--|--4------------L--4--|--2---L---------L------4--|


  S S S  S H        Q       H.           E  E     H.           E  E   
--------------------0----|---------------------|--0---------------L--|
--0---0h-2-3-------------|--0---------------L--|--2---------------L--|
-------------------------|--7---------------L--|---------------------|
-------------------------|---------------------|---------------------|
-------------------------|--0------------L-----|--0------------L--0--|
--2-----------------L----|------------------2--|---------------------|


  S E  S Q    Q.     E     H.           S S S S    H.           E  E   
--2---------------------|---------------------2-|--5---------------L--|
-------3----------------|--L------------3---3---|--5---------------L--|
---------2-----------L--|--2------------L-2-----|---------------------|
------------------------|-----------------------|---------------------|
---------------------0--|-------------------0-L-|---------------------|
--0------------------L--|--0----------------L---|--4------------L--0--|


  H.           E  S S    H.           E  S S    H.           E  E   
--5------------5--3-2-|--3------------5--3-2-|--3---------------L--|
--3-----------------L-|--3-----------------L-|---------------------|
----------------------|----------------------|---------------------|
----------------------|----------------------|---------------------|
----------------------|----------------------|---------------------|
--4---------------0-L-|--5---------------0-L-|--5------------L--2--|


               |--3--|                                                    
  H.           E  E  E     H.           E  E     S S S  S Q    Q.     E   
--0------------5--5--5--|--5---------------L--|--------------------------|
--3------------------L--|--3---------------L--|--------------------------|
------------------------|---------------------|--4---4h-6-7-----------L--|
------------------------|---------------------|--------------------------|
--0---------------L-----|--0------------L-----|--------------------------|
---------------------2--|------------------0--|--5-------------L------0--|


  S S S  S H        E  E     H        Q    E  E     H.           E  E   
--------------------0--L--|-----------2----0--L--|--2---------------L--|
--------------------------|--3----------------L--|--3---------------L--|
--4---4h-6-7-----------L--|----------------------|--2---------------L--|
--------------------------|----------------------|---------------------|
--------------------------|----------------------|--2------------L-----|
--5-----------------L--0--|--4-------------L--4--|------------------4--|


  S S S S  H        E  E     S S S S  H        E  E     S S S S H        E  E   
--------0h-1-----------L--|--------------------------|--------0-1-----------L--|
--3---3----------------L--|--------1h-3-----------L--|--3---3---------------L--|
--------------------------|--3---3----------------L--|-------------------------|
--------------------------|--------------------------|-------------------------|
--1-----------------L-----|--1-----------------L--1--|--3----------------L-----|
-----------------------3--|--------------------------|----------------------5--|


  H.           E  E       E  E  E  Q    Q.        E  E  E  Q    Q    E   
--3---------------L--||---2-------------L------|--4-------------L-------|
--3---------------L--||---3-------------L------|--3-------------L-------|
--5---------------L--||*-----------------------|------------------------|
---------------------||*--------0--2----0------|--------0--2----0-------|
--3------------L--0--||------0-----------------|-----0---------------0--|
---------------------||---0-------------L------|--0-------------L-------|


  E  E  E  Q    Q.        E  E  E  Q    Q    E       S E  S Q    Q.     E   
--2-------------L------|--5-------------L--------||--2---------------------|
--3-------------L------|--3-------------L--------||-------3----------------|
-----------------------|------------------------*||---------2----L---------|
--------0--2----0------|--------0--2----0-------*||--0-----------L---------|
-----0-----------------|-----0---------------0---||---------------------0--|
--0-------------L------|--0-------------L--------||------------------------|


  S E  S Q    Q    E  E     E  S S Q    E  E  E  E     E  S S Q    Q    E  E   
--2-------------------2--|--2--0---0----------L--2--|--2--0---0---------L-----|
-------3-----------3-----|-------4------------3-----|-------4-----------------|
---------2----L----------|--------------------------|-------------------------|
--0-----------L----------|--------------------------|-------------------------|
----------------------0--|--4--------------L-----0--|--4----------------L--0--|
-------------------------|-----------------L--------|-------------------------|


  S E  S Q    Q.     E     S E  S Q    E  E  S S S  S  
--2---------------------|--2-------------------0-2h-3-|
-------3----------------|-------3---------3--3--------|
---------2-----------L--|---------2-------L-----------|
------------------------|-----------------------------|
--3-----------L------0--|--3--------------L------0--L-|
------------------------|-----------------------------|


  Q.     S  S  E  E  S S S  S    Q.     S  S  Q.     E   
--5------3p-2h-3-----L-0-2h-3-|--5------3p-2h-3------L--|
------------------3--3--------|-------------------------|
------------------L-----------|-------------------------|
------------------------------|-------------------------|
--2------------L--L------0--L-|--2------------L------2--|
------------------------------|-------------------------|


  S E  S Q.     Q    E     S E  S Q.     E  E  E     E  S  S  Q    Q.     E   
--7---------------------|--7-------------------7--|--7--5p-4h-5----L------2--|
-------8-------------L--|-------8--------L--8-----|--------------------------|
---------7-----------L--|---------7------------L--|--------------------------|
------------------------|-------------------------|--------------------------|
------------------------|-------------------------|-----------------------0--|
--5-------------L----0--|--5----------------L--0--|--4-------------L---------|


  Q    H        E  E     S S S S  E  Q    Q    E     S S S  S E  Q    Q    E   
----------------------|--------0h-2------------L--|---------------------------|
--3----------------L--|--3---3-----------------L--|--0---0h-2-3------------L--|
----------------------|---------------------------|---------------------------|
----------------------|---------------------------|---------------------------|
----------------------|---------------------------|---------------------------|
--0-------------L--4--|--2----------------L----0--|--2----------------L----2--|


  S S S S  E  Q    Q    E     W                   S E  S Q    Q.     E   
--------0h-2------------L--|--0----------------|--2---------------------|
--3---3-----------------L--|-------------------|-------3----------------|
---------------------------|--2----------------|---------2----L---------|
---------------------------|--2----------------|--0-----------L---------|
--0----------------L-------|--0----------------|---------------------0--|
------------------------2--|-------------------|------------------------|


  S E  S H        E  E     E  S S Q    Q    E  E     E  S S Q    Q    E  E   
--2------------------2--|--2--0---0---------L--2--|--2--0---0---------L-----|
-------3----------3-----|-------4-----------3-----|-------4-----------------|
---------2--------------|-------------------------|-------------------------|
--0---------------L-----|-------------------------|-------------------------|
---------------------0--|--4----------------L--0--|--4----------------L--0--|
------------------------|-------------------------|-------------------------|


  S E  S Q    Q.     E     S E  S Q.     E  S S S  S  
--2---------------------|--2------------------0-2h-3-|
-------3----------------|-------3--------3--3--------|
---------2-----------L--|---------2------L-----------|
------------------------|----------------------------|
--3-----------L------0--|--3----------------L---0--L-|
------------------------|----------------------------|


  Q.     S  S  E  E  S S S  S    Q.     S  S  Q.     E   
--5------3p-2h-3-----L-0-2h-3-|--5------3p-2h-3------L--|
------------------3--3--------|-------------------------|
------------------L-----------|-------------------------|
------------------------------|-------------------------|
--2--------------------L-0--L-|--2------------L------2--|
------------------------------|-------------------------|


  S E  S Q.     Q    E     S E  S Q.     E  E  E     E  S  S  Q    Q.     E   
--7---------------------|--7-------------------7--|--7--5p-4h-5----L------2--|
-------8-------------L--|-------8--------L--8-----|--------------------------|
---------7-----------L--|---------7------------L--|--------------------------|
------------------------|-------------------------|--------------------------|
------------------------|-------------------------|-----------------------0--|
--5-------------L----0--|--5----------------L--0--|--4-------------L---------|


  Q    H        E  E     S S S S  E  Q.     E  E     S S S S  E  H        E   
----------------------|--------0h-1------------L--|--------------------------|
--3----------------L--|--3---3-----------------L--|--------1h-3-----------L--|
----------------------|---------------------------|--3---3----------------L--|
----------------------|---------------------------|--------------------------|
-------------------2--|--1------------------L-----|--1-----------L--------1--|
--0-------------L-----|------------------------3--|--------------------------|


  S S S S E  Q.     E  E     W                     E  E  E  Q    Q.      
--------0-1------------L--|--0----------------||---2-------------L------|
--3---3----------------L--|-------------------||---3-------------L------|
--------------------------|--5----------------||*-----------------------|
--------------------------|-------------------||*--------0--2----0------|
--3-----------------L-----|--3----------------||------0-----------------|
-----------------------5--|-------------------||---0-------------L------|


  E  E  E  Q    Q    E     E  E  E  Q    Q.        E  E  E  Q    Q    E     
--4-------------L-------|--2-------------L------|--5-------------L--------||
--3-------------L-------|--3-------------L------|--3-------------L--------||
------------------------|-----------------------|------------------------*||
--------0--2----0-------|--------0--2----0------|--------0--2----0-------*||
-----0---------------0--|-----0-----------------|-----0---------------0---||
--0-------------L-------|--0-------------L------|--0-------------L--------||


  W                   W                  
-------------------|-------------------||
--3----------------|--L----------------||
--2----------------|--L----------------||
--0----------------|--L----------------||
-------------------|-------------------||
--0----------------|--L----------------||




Duration Legend
---------------
W - whole
H - half
Q - quarter
E - 8th
S - 16th
. - note dotted
|-n-|  - n-tuplets


Tablature Legend
----------------
L - tied note
h - hammer on
p - pull off
Login or Register to remove this ad.

1 comment on The Great Sea

Great! Needs more praise!

5

Great! Needs more praise!

Huge thumbs up!