Ads

Grandma's Theme (Legend of Zelda: The Wind Waker) Guitar Tab

Submitted: Aug 05, 2013 by Alfa_ice

5
Average: 5 (3 votes)
Download | Listen
Game: Legend of Zelda: The Wind Waker
Composer(s): Koji Kondo, Hajime Wakai, Toru Minegishi, Kenta Nagata
Style: Arrangement, Fingerstyle, Natural harmonics
Series: Legend of Zelda

AutoScroll: Slow | Medium | Fast
                                Grandma's Theme                                 
The Legend of Zelda: The Wind Waker
Tuning: DADGBE (Drop D)
Difficulty: Medium 

Tabbed by: Alfa_ice



     Q     E   E  E   E  E  E     Q    Q    H           Q    E  E  E  E  E  E   
E||---------------8--10--8--7--|--8------------------|-------------5--6--5-----|
B||-------10--11---------------|-------8----8--------|-------6--8-----------6--|
G||----------------------------|---------------------|-------------------------|
D||----------------------------|---------------------|--0-------------------L--|
A||--8----------------------L--|--7---------L--------|-------------------------|
D||----------------------------|---------------------|-------------------------|


  W                   Q    E  E  E  E  E  E     Q    Q    H         
--0----------------|----------0--1--3--1--0--|--1------------------|
-------------------|-------3-----------------|-------1----1--------|
-------------------|-------------------------|---------------------|
-------------------|-------------------------|---------------------|
--3----------------|--1-------------------L--|--0---------L--------|
-------------------|-------------------------|---------------------|


  Q    E  E  E  E  E  E     E  E  E  E  E  E  E  E   
----------------8--6--5--|--3-----------L--0--1--3--|
----------5--6-----------|-----------1--3-----------|
-------7-----------------|-----2--3-----------------|
-------------------------|--------------------------|
-------------------------|--3--------------------L--|
--5-------------------L--|--------------------------|


   Q     E   E  E   E  E   E      E   E   H.            
----------------8--10--8------|------15--15------------|
--10----10--11------------12--|--13--------------------|
------------------------------|------------------------|
------------------------------|------------------------|
---8-------------------L------|------------------------|
------------------------------|--14-------L------------|


   Q     E   E   Q     Q        Q.      E  H           Q    E  E  E  E  E  E   
--------13--12--13----------|-----------------------|-------------------------|
----------------------13----|--10~------------------|-------------6--8--6-----|
----------------------------|-----------9--9--------|-------7--9-----------9--|
----------------------------|-----------------------|-------------------------|
----------------------------|-----------------------|-------------------------|
--12-------------------L----|--10----------L--------|--8-------------------L--|


                                                             NH        
  Q    Q    Q    E  E     Q.     E  Q    Q       H           H         
------------8----6--5--|--5-------------------|-----------------------|
--6--------------------|---------6--6----5----|--6--------<>18--------|
-------5---------------|----------------------|-----------------------|
-----------------------|----------------------|-----------------------|
------------5-------L--|------------3----L----|-----------------------|
--7---------L----------|--5---------L---------|--3-----------L--------|


  Q    Q     Q     Q       Q.     E  E  E  E  E     Q    Q    Q    Q     
------------------10----|--8------6--6--------L--|------------3----8----|
------------10----------|------------------------|----------------------|
-------7----------------|------------------------|-------5--------------|
------------------------|---------------5--7--8--|----------------------|
------------------------|------------------------|--3--------------L----|
--0----------------L----|--5------------------L--|----------------------|


  Q.     E  E  E  E  E     Q     Q     Q     Q        Q.     E  E  E  E  E   
--6------5--5--------L--|-------------------11----|--10------8--6--------L--|
------------------------|-------------10----------|-------------------------|
------------------------|-------11----------------|-------------------------|
---------------3--5--7--|-------------------------|----------------5--7--8--|
------------------------|-------------------------|-------------------------|
--3------------------L--|--0-----------------L----|---5------------------L--|


  Q    Q     Q     Q         H         E  Q.         H         
------------------12~----|--10~--------L--9~------|--L--------|
-------8----11-----------|------------------------|-----------|
-------------------------|------------------------|-----------|
-------------------------|------------------------|-----------|
--7----------------L-----|---0------------L-------|--L--------|
-------------------------|------------------------|-----------|


  Q     E   E  E   E  E   E      E   E   H.            
---------------8--10--8------|------15--15------------|
-------10--11------------12--|--13--------------------|
-----------------------------|------------------------|
-----------------------------|------------------------|
--8-----------------------L--|------------------------|
-----------------------------|--14-------L------------|


   Q     E   E   Q     Q        Q.     E  H           Q    E  E   E  E   E  E   
--------13--12--13----------|----------------------|---------------------------|
----------------------13----|--10------------------|-----------------8---------|
----------------------------|----------9--9--------|-------7--9--10-----10--9--|
----------------------------|----------------------|---------------------------|
----------------------------|----------------------|---------------------------|
--12-------------------L----|--10---------L--------|--8---------------------L--|


  Q    Q    Q    E  E     Q.     E  Q    Q       E  E  E  E  H         
------------8----6--5--|--5-------------------|-----------------------|
--6--------------------|---------6--6----5----|--6-----------6--------|
-------5---------------|----------------------|-----------5-----------|
-----------------------|----------------------|--------3--------------|
------------5-------L--|------------3----L----|-----3-----------------|
--7---------L----------|--5---------L---------|--3-----------L--------|


  Q    E  E  H           Q    E  E  H           Q    E  E  Q    Q     
----------------------|----------------------|-----------------------|
-------------3--------|-------------1--------|-------------3---------|
----------3-----------|----------2-----------|----------3------------|
-------3--------------|-------3--------------|-------3----------3----|
--1----------L--------|--0----------L--------|-----------------------|
----------------------|----------------------|--5---------------L----|


                                                         NH        
  H.           Q       H.           Q        H           H         
--------------------|--------------------|------------<>13--------|
--------------------|--------------------|------------------------|
---------------0----|--L-----------------|------------------------|
--3------------2----|--L------------3----|---L--------------------|
--3------------3----|--L-----------------|------------------------|
--------------------|---------------3----|------------------------|


  W                  
--L----------------||
-------------------||
-------------------||
--L----------------||
-------------------||
--L----------------||




Duration Legend
---------------
W - whole
H - half
Q - quarter
E - 8th
S - 16th
. - note dotted



Tablature Legend
----------------
L - tied note
NH - natural harmonic
~ - vibrato
Login or Register to remove this ad.

3 comments on Grandma's Theme

Great tab !

5

I always liked this tune and I used to play Kabukibear version. Yours is very different but surprisingly I really like it too, the choice will be difficult now -_-'
It let me think Guitar is a great instrument with so much possibilities, you knew so well how utilize it. It's happiness to wake up & find this top quality tab to play ^^ I like the way how this day begin..

I suspected my version would

I suspected my version would be very different from most.. It has ridiculous stretches lol..
I hope you guys have flexible fingers, or this might aswell be close to impossible to play with a "let ring" feel on the bass all the way through ^^

Awesome. The quality tabs

5

Awesome. The quality tabs just keep coming.