Ads

Dragon Roost Island (Legend of Zelda: The Wind Waker) Guitar Tab

Submitted: Jul 03, 2013 by Colin_spade

4
Average: 4 (2 votes)
Download | Listen
Game: Legend of Zelda: The Wind Waker
Composer(s): Koji Kondo, Hajime Wakai, Toru Minegishi, Kenta Nagata
Style: Arrangement, Fingerstyle
Series: Legend of Zelda

AutoScroll: Slow | Medium | Fast
Dragon Roost Island                               


                                                                      Koji Kondo
Track 1

A few minor octave changes. hope nothing too bad or noticeable :D enjoy!!


     ^  v ^ v  ^                          >        >         
     E  S S E  E  Q       H.              E  E  E  E  E  E   
E||--2--2-2-2--2--L----|--L------------|--------------------|
B||--3--3-3-3--3--L----|--L------------|--------------------|
G||--2--2-2-2--2--L----|--L------------|--------------------|
D||--4--4-4-4--4--L----|--L------------|--0--0--0--0--0--0--|
A||--0---------0--L----|--L------------|--0--0--0--0--0--0--|
D||--0---------0--L----|--L------------|--0--0--0--0--0--0--|


  >  ^ v ^     >                                                                
  E  S S E  E  E  E       Q.     E  E  E     Q    Q    Q       Q.     E  E  E   
---------------------||----------------3--|------------1----|---------------3--|
---------------------||----------3--L-----|-------1---------|---------3--L-----|
---------------------||*--0------0--------|-----------------|--0------0--------|
--0--0-0-0--0--0--0--||*--0------0--------|--3--------------|--0------0--------|
--0--0-0-0--0--0--0--||---1------1--------|--0----0----0----|--1------1--------|
--0--0-0-0--0--0--0--||-------------------|--3----3----3----|------------------|


  Q    Q    E  E     Q.     E  Q       Q.     E  Q         Q.     Q.      
------------1-----|--6------5--6----|--8------5--L----|--1g3-------------|
-------1-------3--|-----------------|-----------------|------------------|
------------------|--0------0--L----|-----------------|----0------0------|
--3---------------|--0------0--L----|-----------------|----0------0------|
--0----0----0-----|-----------------|--0------0--L----|----1------1------|
--3----3----3-----|-----------------|---------3--L----|------------------|


  Q.     Q    E     Q.     E  Q       Q.      Q.         Q.     Q.      
-----------------|--6------5--6----|--8------13------|--10-------------|
--3-----------3--|-----------------|-----------------|-----------------|
-----------------|--0------0-------|-----------------|---0------0------|
-----------------|--0------0-------|-----------------|---0------0------|
--0------0-------|-----------------|--0-------0------|-----------------|
--3------3-------|-----------------|-----------------|-----------------|


  Q.     Q    E     Q.       Q.        Q.     Q    E     Q.     Q.      
-----------------|------------------|-----------------|---------3------|
-----------------|--1------3g1------|--------------1--|----------------|
--------------3--|------------------|-----------------|--3------0------|
--3------3-------|--1--------1------|--1------1-------|--0------0------|
--1------1-------|--3--------3------|--3------3-------|--1------1------|
-----------------|------------------|-----------------|----------------|


  Q.     Q    E     Q.       Q.        Q.     Q    E     Q.     Q.      
-----------------|------------------|-----------------|--3-------------|
-----------------|--1------3g1------|-----------------|----------------|
--0------0----3--|------------------|--------------3--|--0------0------|
--0------0-------|------------------|-----------------|----------------|
--1------1-------|--3--------3------|--3------3-------|----------------|
-----------------|--3--------3------|--3------3-------|--1------1------|


  Q.     Q.        Q.     Q.        Q.     Q.        Q.     E  E  E   
----------------|----------------|----------------|--3------3--------|
----------------|----------------|----------------|--3---------------|
--0------0------|--0------0------|--0------0------|--3------------0--|
----------------|----------------|----------------|---------0--L-----|
----------------|----------------|----------------|------------------|
--1------1------|--1------1------|--1------1------|--5---------------|


  Q    Q    Q       Q.     E  E  E     Q    Q    Q       Q.     E  E  E   
--1----1----1----|--3------3--------|--1----1----1----|--6------5--6-----|
--1----1----1----|--3---------------|--1----1----1----|------------------|
--2----2----2----|--3------------0--|--2----2----2----|---------------0--|
------------3----|---------0--L-----|-----------------|---------0--L-----|
-------3---------|------------------|-------0---------|------------------|
--3--------------|--5---------------|--0---------0----|--5---------------|


  Q    E  E  Q         Q.     E  E  E     Q    Q    E  E     Q.     E  E  E   
--8-------5-------|--1g3---------------|------------------|------------------|
------------------|--------------------|--3---------------|------------------|
------------------|-----------------0--|------------------|--3------2--3--0--|
-------------3----|-----------0--L-----|---------------0--|---------0--L-----|
-------3----------|--------------------|-------0----------|------------------|
--3---------------|----5---------------|--0---------0-----|--5---------------|


  Q    E  E  Q       Q.     E  E  E     Q    Q    E  E     Q.        E  E  E   
----------1-------|------------------|---------------6--|--8------10g8--------|
--1---------------|--3---------------|------------------|---------------------|
------------------|---------------3--|------------------|---------------------|
-------------3----|---------3--L-----|------------3-----|------------------6--|
-------3----------|--1---------------|--1----1----------|------------6--L-----|
--3---------------|------------------|------------------|--6------------------|


  Q    Q    E  E     Q.     E  E  E     Q    Q    E  E     Q.       E  E  E   
---------------8--|--6---------------|------------------|--------------------|
------------------|---------8--------|------------------|--1------3g1--------|
------------------|------------------|---------------3--|--------------------|
------------6-----|---------------5--|------------5-----|-----------------3--|
-------6----------|---------5--L-----|-------5----------|-----------3--L-----|
--6---------------|--5---------------|--5---------------|--3-----------------|


                     ^                                                       
  Q    Q    E  E     Q.     E  E  E     E  E  E  E  Q       Q.     E  E  E   
------------------|--3---------------|-------------------|--0---------------|
------------------|--4---------------|-------------------|---------------1--|
---------------3--|--3---------------|-------------------|---------0--L-----|
------------3-----|---------------1--|--3--1-----1--0----|------------------|
-------3----------|---------1--L-----|--------1----------|--3---------------|
--3---------------|--1---------------|-------------------|------------------|


                       ^                                       ^                
  E  E  E  E  E  E     Q.     E  E  E     E  E  E  E  E  E     Q.     E  E  E   
-----------------1--|--3---------------|--------------------|------------------|
--3--1--------1-----|--4---------------|--------------------|--3---------------|
--------0-----------|--5------------1--|--3--1-----1--------|--3------------0--|
--------------------|---------1--L-----|--------1--------1--|---------0--L-----|
-----------3--------|------------------|--------------------|------------------|
--------------------|--4---------------|--------------6-----|--5---------------|


  ^                 
  Q    Q    Q       
------------------||
--1---------------||
--2--------------*||
------------3----*||
-------3----------||
--3---------------||




Duration Legend
---------------
W - whole
H - half
Q - quarter
E - 8th
S - 16th
T - 32nd
X - 64th
. - note dotted
|-n-|  - n-tuplets


Tablature Legend
----------------
L - tied note
x - dead note
g - grace note
(n) - ghost note
> - accentuded note
NH - natural harmonic
AH - artificial harmonic
TH - tapped harmonic
SH - semi harmonic
PH - pitch harmonic
h - hammer on
p - pull off
b - bend
br - bendRelease
pb - preBend
pbr - preBendRelease
brb - bendReleaseBend
\n/ - tremolo bar dip
\n - tremolo bar dive
-/n - tremolo bar Release up
/n\ - tremolo bar inverted dip
/n - tremolo bar return
-\n - tremolo bar Release down
S - shift slide
s - legato slide
/ -  slide into from below or out of upwards
\ -  slide into from above or out of downwards
~ - vibrato
W - wide vibrato
tr - trill
TP - tremolo picking
T - tapping
S - slap
P - pop
< - fade in
^ - brush up
v - brush down
Login or Register to remove this ad.