Ads

Trailer Theme (Legend of Zelda: Twilight Princess) Guitar Tab

Submitted: Apr 29, 2012 by Haze (Last updated: May 14, 2012)

5
Average: 5 (4 votes)
Download | Listen
Game: Legend of Zelda: Twilight Princess
Composer(s): Koji Kondo, Asuka Ohta, Toru Minegishi
Style: Arrangement, Fingerstyle
Series: Legend of Zelda

This song is also called Orchestra Piece #1

AutoScroll: Slow | Medium | Fast
Song - Twilight Princess Trailer Theme
Game - The Legend of Zelda: Twilight Princess
Composer - Koji Kondo/Nintendo
Tabbed by - Haze
Date - 24/04/12

Hi, guys. This is my arrangement of the Twilight Princess trailer theme-song and it's my very first tab.

I just felt like it had to be done, so here it is.

Standard Tuning



  Q=82
    E E E E E E E E   E E  E  E  E E E E   E E E E E E E E   E E E E E E E E
e|-10---8---6---5-6-|-8---10-11-10---8---|-6---5-6-8---5---|-6-----6-5-----5-|
B|----8---8---8-----|---8----------8---8-|---8-------7---7-|-----8-------5---|
G|--0-------0-------|-0----------0-------|-0---------------|---7-------6-----|
D|--0---------------|--------------------|-----------------|-----------------|
A|------------------|--------------------|-----------------|-----------------|
E|------------------|--------------------|-----------------|-----------------|



   E E E E E E E E   E E  E  E  E E E E   E E E E E E E E   E E E E E E E E
|-10---8---6---5-6-|-8---10-11-10---8---|-6---5-6-8---5---|-----6-5---5-6-8--|
|----8---8---8-----|---8----------8---8-|---8-------7---7-|-8-------8--------|
|--0-------0-------|-0----------0-------|-0---------------|---7--------------|
|--0---------------|--------------------|-----------------|------------------|
|------------------|--------------------|-----------------|------------------|
|------------------|--------------------|-----------------|------------------|


   Q  H    S  S  S S    Q   H.        Q   H     S  S S  S    Q   H.
|-10---------------8-|-10--11-------|-8--------------8-13-|-11--10-----|
|--0--8----8-10-11---|--0---8-------|-------------10------|------7-----|
|--0--0--------------|------8-------|----10----10---------|--0---7-----|
|--0-----------------|-----10-------|-----0-----0---------|------7-----|
|--------------------|------8-------|-0-------------------|------------|
|--------------------|------8-------|----10---------------|-11---------|


   Q  Q   Q.    S  S    Q   E  E  E  E  E  E
|-10-----15-------15-|-13--11-10--8-10-11-13-|
|--0--8---0----15----|-12--------------------|
|---------0----------|-12---------0----------|
|---------0----------|-----------------------|
|-10-----------------|-----------------------|
|--------------------|-----------11----------|


   Q   H     S  S  S  S    H.       E E
|-13-----------------13-|-11-------10-8-|
|-10--13----10-11-13----|---------------|
|-10--------------------|---------------|
|-10--------------------|--0------------|
|-----------------------|---------------|
|-----------------------|---------------|


  H.=H
   W           +W
|-10--------|-(10)----|
|--7--------|--(7)----|
|--7--------|--(7)----|
|--7--------|--(7)----|
|--0--------|--(0)----|
|-----------|---------|


  Q=74
  E   E   Q     Q     Q       E   E   Q     E.   S Q
|---------3-----2-----------|---------3-----2----3-5-----|
|---------------------3-----|----------------------------|
|-----0---------------------|-----0----------------------|
|---------------------------|----------------------------|
|---------------0-0-0-0-0-0-|-1-1---1-1-1-1-0--0-0-0-0-0-|
|-3-3---3-3-3-3-------------|----------------------------|
  S E   S S E S S E S S E S   S E   S S E S S  E S S E S


  E   E   Q     Q     Q       E   E   E   E   E   E   E   E
|---------3-----5-----------|---------3---5---6-------0---5---|
|---------------------3-----|---------------------3-----------|
|-----0---------------------|-----0---------------------------|
|---------------------------|---------------------------------|
|---------------------------|---------------------------------|
|-3-3---3-3-3-3-2-2-2-2-2-2-|-1-1---1-1-1---1-0-0---0-0-0---0-|
  S E   S S E S S E S S E S   S E   S S E   S S E   S S E   S


  Q     H           S S S S   Q.   S S Q     E E
|-------------------------3-|-5----7-8-7-------7-|
|-6-----------------3-5-6---|----------------5---|
|-------2-------------------|--------------------|
|-------------------0-------|--------------------|
|-5-5-5-0-0-0-0-0-0---------|----------7-7-7-----|
|---------------------------|-5------------------|
  S E S S E S S E S Q         H        S E S Q


                  |-3-|
   Q.   S S Q     E E E    Q.    S  S  H
|-10----8-7-8-------5-8-|-12----14-12-11------------------|
|-----------------5-----|---------------------------------|
|-----------------------|---------------------------------|
|-----------------0-----|---------------------------------|
|-----------0-0-0-------|---------------------------------|
|-10--------------------|-12----------11-11-11-11-11-11---|
   H        S E S Q        H           S  E  S  S  E  S


  S S S S S S S S S S S S S S S S
|-0-2-3-0-2-3-5-2-3-5-7---5-7-8-5-|
|-----------------------8---------|
|---------------------------------|
|---------------------------------|
|---------------------------------|
|-0-------------------------------|


                                       PM    PM      PM      PM
  S S S S S S S S S S S S S S S S    S S E S S E  S  S E  S  S E
|-0-2-3-0-2-3-5-2-3-5-6---5-6-8-5-||-7-7---7-7---14-14---14-14-----|
|-----------------------8---------||-7-7---7-7----9--9----9--9-----|
|---------------------------------||-8-8---8-8----9--9----9--9-----|
|---------------------------------||-9-9---9-9----9--9----9--9-----|
|---------------------------------||-9-9---9-9---------------------|
|-0-------------------------------||-7-7---7-7---------------------|


  Q.   E Q.   S S   Q.   E Q.   S S   Q  Q   Q   Q     H     H
|-4----7----------|-4----7----------|-4--7--14--12--|-16----14----|
|-5------7----5-7-|-5------7----5-7-|-5-------------|-------------|
|-4---------------|-4---------------|-4-------------|-------------|
|-----------------|-----------------|---------------|-------------|
|--------0--------|--------0--------|-------14------|-------------|
|-0---------------|-0---------------|-0-------------|--0----14----|


         |-3-|             |-3-|              |-3-|             |-3-|
  E E Q  E E E Q    E E Q  E E E E E   E E Q  E E E Q    E E Q  E E E  E  E
|-----------------|------------------|-----7--5-4-5----|-----7--9-5-9-12-14--|
|-----------------|------------------|---5----------7--|---5-----------------|
|-----------------|------------------|-----------------|---------------------|
|-----------------|--------------2-4-|-----------------|---------------------|
|-----2--0---0----|-----2--4-0-4-----|-----7-----------|-----7---------------|
|---0------4---2--|---0--------------|---0-0--5-4-5-7--|---5-0--------12-14--|


   |3-|  |3-|  |3-|  |3-|  |3-|  |3-|  |--3--|  |--3--|
   E  E  S  S  E  E  S  S  E  E  S  S  S  S  S  S  S  S
|-12-12-12-12-12-12-12-12-12-12-12-12-12-12-12-12-12-12-|
|--9-----------9-----------9-----------9--9--9--9--9--9-|
|--9-----------9-----------9-----------9--9--9--9--9--9-|
|--9-----------9-----------9-----------9--9--9--9--9--9-|
|-------------------------------------------------------|
|-------------------------------------------------------|


   E E H.        +W
|-12---0-------|-(0)----*|
|--9---0-------|-(0)----*|
|--9---1-------|-(1)----*|
|--9---2-------|-(2)----*|
|------2-------|-(2)----*|
|------0-------|-(0)----*|

PM  - palm muting
Login or Register to remove this ad.

3 comments on Trailer Theme

Wow!! no comments? this is an

Wow!! no comments? this is an awesome tab man, I'm going to learn this for sure >:D

Thanks, hope you like it.

Thanks, hope you like it.

This really had to be done.

5

This really had to be done. Thank you so much for this tab.