Ads

Queen Rutela (Legend of Zelda: Twilight Princess) Guitar Tab

Submitted: Jul 17, 2011 by Alfa_ice (Last updated: Jul 18, 2011)

5
Average: 5 (2 votes)
Download | Listen
Game: Legend of Zelda: Twilight Princess
Composer(s): Koji Kondo, Asuka Ohta, Toru Minegishi
Style: Arrangement, Fingerstyle
Series: Legend of Zelda

Click here for a video example.

AutoScroll: Slow | Medium | Fast
                              Serenade of Water                                 

The Legend of Zelda
Twilight Princess
Composed by: Koji Kondo
Tabbed by: Alfa_ice

Drop D-tuning


     E  E  E  E  E  E     E  E  E  E  E  E     E  E  E  E  E  E   
E||--------------------|--------------------|--------1-----5-----|
B||--3-----------------|--0-----------------|--3--------3-----0--|
G||-----2--------------|-----0--------------|-----2--------2-----|
D||--------3--0--------|--------0-----------|--0-----3-----------|
A||--------------0-----|-----------2--------|--------------------|
D||-----------------3--|--------------5--0--|--------------------|


  E  E  E  E  E  E     E  E  E  E  E  E     E  E  E  E  E  E   
--5-----7-----------|--------1-----5-----|--5-----7-----------|
-----0-----0--------|--3--------3-----0--|-----0-----0--------|
--0-----0-----0-----|-----2--------2-----|--0-----0-----0-----|
-----------------0--|--0-----3-----------|-----------------0--|
--------------------|--------------------|--------------------|
--------------------|--------------------|--------------------|


  E  E  E  E  E  E     E  E  E  E  E  E     E  E  E  E  E  E   
--------7-----8-----|--7-----------------|--------7-----8-----|
--6-----------------|--------5-----------|--6-----------------|
--------5-----5-----|--5--------5--------|--------5--------5--|
--0--7-----7-----7--|-----7--------7-----|--0--7-----7--7-----|
--------------------|--------7--------7--|--------------------|
--------------------|--------------------|--------------------|


  E  E  E  E  E  E     E  E  E  E  E  E     E  E  E  E  E  E   
--7-----------------|--------1-----5-----|--5-----7-----------|
--------5-----------|--3--------3-----0--|-----0-----0--------|
--5--------5--------|-----2--------2-----|--0-----0-----0-----|
-----7--------7-----|--0-----3-----------|-----------------0--|
--------7--------7--|--------------------|--------------------|
--------------------|--------------------|--------------------|


  E  E  E  E  E  E     E  E  E  E  E  E     E  E  E  E  E  E   
--------1-----5-----|--5-----7-----------|--5-----------1-----|
--3--------3-----0--|-----0-----0--------|--------3-----------|
-----2--------2-----|--0-----0-----0-----|-----------0-----0--|
--0-----3-----------|-----------------0--|-----0--3-----------|
--------------------|--------------------|--1-----------------|
--------------------|--------------------|--------------------|


  E  E  E  E  Q       E  E  E  E  E  E     H.              H.             
--3--1--0-----3----|--2--------------0--|--2------------|--L------------||
-----------1-------|--------------3-----|--3------------|--L------------||
--------0----------|-----------2--------|--2------------|--L------------||
-------------------|--------0-----------|---------------|---------------||
--3----------------|-----0--------------|---------------|---------------||
-------------------|--0-----------------|--0------------|--L------------||







Duration Legend
---------------
W - whole
H - half
Q - quarter
E - 8th
Login or Register to remove this ad.

7 comments on Queen Rutela

While I'm sure your notes are

While I'm sure your notes are correct, this piece really should be grouped in bars of 3/4.

I fixed it for them :-)

I fixed it for them :-)

what does that mean..

what does that mean.. "bars of 3/4" ?

oh.. the time signature..

oh.. the time signature.. lol.. thanks again auriplane..
should I change it on the midi and gp5 file?

Oh, I changed the GP5. The

Oh, I changed the GP5. The MIDI should be the same though, I think :-)

It reminds me

Same melody. Different

Same melody. Different background instruments.