Ads

Midna's Theme (Legend of Zelda: Twilight Princess) Guitar Tab

Submitted: Jan 21, 2015 by Alfa_ice

5
Average: 5 (2 votes)
Download | Listen
Game: Legend of Zelda: Twilight Princess
Composer(s): Koji Kondo, Asuka Ohta, Toru Minegishi
Style: Arrangement, Fingerstyle
Series: Legend of Zelda

AutoScroll: Slow | Medium | Fast
                                Midna's Theme                                   

The Legend of Zelda: Twilight Princess
Arranged by Isac Saleh
Music by Toru Minegishi
Difficulty: Easy / Meduim

Standard tuning: EADGBE (Capo 4th fret)



     Q.     H        E     Q.     H        E  E  E     Q    E  E  Q    E  E   
E||---------------------|------------------------0--|----------0----------0--|
B||---------------------|---------------------------|--0----------0----------|
G||--0------2-----------|--0------2-----------2-----|-------2----------2-----|
D||--2------3-----------|--2------3--------L--------|--2----------3----------|
A||---------------------|---------------------------|------------------------|
E||--0------1--------L--|--0------1-----------------|--0----------1----------|


  E  E  E   E  H           E  E  E  E  Q    E  E     Q    E  E  H          
------------------------|-----1-------------------|-----------------------|
-----8---------0--------|--------1----------3-----|-------3-----L---------|
--5-----7p--5--0--------|--3--------3--2-------2--|--1-------1--0---------|
--4---------------------|--------------0----------|--3----------3h--------|
------------------------|-------------------1-----|--2----------3---------|
--2------------3--------|--3----------------------|-----------------------|


   H         E  E     Q    E  E  Q    E  E     E  E  E   E  Q.     E   
----------------0--|----------0----------0--|----------------------8--|
-------------------|--0----------0----------|-----8---------0---------|
-------------2-----|-------2----------2-----|--5-----7p--5--0---------|
--(2)--------------|--2----------3----------|--4----------------------|
-------------------|------------------------|-------------------------|
-------------------|--0----------1----------|--2------------3---------|


  E  E  E  E  Q    E  E     Q    E   E  H.              Q.     H        E   
--7-----0--6--5----------|--0------------------------|---------------------|
-----8-------------1--3--|---------------------------|---------------------|
--4-----3-----2----1-----|--0----0-------------------|--0------2-----------|
-------------------------|-------2h--3--4------------|--2------3--------L--|
--4-----3-----2----1-----|--------------7------------|---------------------|
-------------------------|--3-----------0------------|--0------1-----------|


  Q.     H        E  E  E     Q    E  E  Q    E  E     E  E  E   E  H         
------------------------0--|----------0----------0--|------------------------|
---------------------------|--0----------0----------|-----8---------0--------|
--0------2-----------2-----|-------2----------2-----|--5-----7p--5--0--------|
--2------3--------L--------|--2----------3----------|--4---------------------|
---------------------------|------------------------|------------------------|
--0------1-----------------|--0----------1----------|--2------------3--------|


  E  E  E  E  Q    E  E     Q    E  E  H             H         E  E   
-----1-------------------|-----------------------|----------------0--|
--------1----------3-----|-------3---------------|-------------------|
--3--------3--2-------2--|--1-------1--0---------|-------------2-----|
--------------0----------|--3----------3h--------|--(2)--------------|
-------------------1-----|--2----------3---------|-------------------|
--3----------------------|-----------------------|-------------------|


  Q    E  E  Q    E  E     E  E  E  E  Q.     E     E  E  E  E  Q    E  E   
----------0----------0--|-----3---------------8--|--7-----0--6--5----------|
--0----------0----------|--1-----3--1--0---------|-----8-------------1--3--|
-------2----------2-----|--------------0---------|--4-----3-----2----1-----|
--2----------3----------|--4---------------------|-------------------------|
------------------------|------------------------|--4-----3-----2----1-----|
--0----------1----------|--2-----------3---------|-------------------------|


  Q    E   E  H.             
--0------------------------||
---------------------------||
--0----0-------------------||
-------2h--3--2------------||
---------------------------||
--3-----------0------------||




Duration Legend
---------------
W - whole
H - half
Q - quarter
E - 8th
S - 16th
T - 32nd
X - 64th
. - note dotted
|-n-|  - n-tuplets


Tablature Legend
----------------
L - tied note
x - dead note
g - grace note
(n) - ghost note
> - accentuded note
NH - natural harmonic
AH - artificial harmonic
TH - tapped harmonic
SH - semi harmonic
PH - pitch harmonic
h - hammer on
p - pull off
b - bend
br - bendRelease
pb - preBend
pbr - preBendRelease
brb - bendReleaseBend
\n/ - tremolo bar dip
\n - tremolo bar dive
-/n - tremolo bar Release up
/n\ - tremolo bar inverted dip
/n - tremolo bar return
-\n - tremolo bar Release down
S - shift slide
s - legato slide
/ -  slide into from below or out of upwards
\ -  slide into from above or out of downwards
~ - vibrato
W - wide vibrato
tr - trill
TP - tremolo picking
T - tapping
S - slap
P - pop
< - fade in
^ - brush up
v - brush down
Login or Register to remove this ad.

1 comment on Midna's Theme

---8--|--7-----0--6--5-------

5

---8--|--7-----0--6--5----------|
------|-----8-------------1--3--|
------|--4-----3-----2----1-----|
------|-------------------------|
------|--4-----3-----2----1-----|
------|-------------------------|

i'd be better if it was

---8--|--7--------6--5----------|
------|-----8--5----------1--3--|
------|--4-----3-----2----1-----|
------|-------------------------|
------|--4-----3-----2----1-----|
------|-------------------------|

otherwise it's great and much easier than kabukibear's tab