Midna's Lament (arrangement) (Legend of Zelda: Twilight Princess) Guitar Tab

Submitted: Jun 16, 2012 by Stamen47

4.9375
Average: 4.9 (16 votes)
Download | Listen
Game: Legend of Zelda: Twilight Princess
Composer(s): Koji Kondo, Asuka Ohta, Toru Minegishi
Style: Arrangement, Fingerstyle, Natural harmonics
Series: Legend of Zelda

AutoScroll: Slow | Medium | Fast
                         Midna's Lament (arrangement)                           

Music by Koji Kondo, Asuka Ohta, Toru Minegishi 
Arrangment by Stamen47

My idea behind this arrangement is a mash up of Midna's Lament and
Take 5 by Dave Brubeck.  If you're having trouble playing this, I
recommend figuring out how to play the rhythm accurately before getting
the notes down.  If you want a more accurate and thorough guide to
playing the rhythm, check out the pdf that has the notation.  If you 
don't read music notation, now's the time to learn! You only need to 
figure out how to read rhythms correctly in music notation in order
to play this arrangement, and learning that is the best place to start
if you want to learn to read music notation.

bpm at about 140
Swing it

     E  E  E  E  Q    E  E  E  E     E  E  E  E  Q    E  E  Q     
E||-----0--------0----------------|-----0--------0---------------|
B||-----1--------1----------1--0--|-----1--------1---------------|
G||-----2--------2----------------|-----2--------2----------0----|
D||--0--------0-------------2-----|--0--------0-------0----------|
A||----------------------0--------|----------------------0-------|
D||-------------------0-----------|-------------------------2----|


                                       ^                             
                                                |---3--|  |---3--|   
  E  E  E  E  Q    E  E  E  E     Q    H        E   E  E  E   E  E   
-----0--------0----------------|-------0--------3p--0---------------|
-----1--------1----------0--1--|-------1---------------1------------|
-----2--------2----------0-----|-------2------------------2p--0-----|
-----------0-------------------|-------3-------------------------3--|
----------------------0--------|-------0----------------------------|
--0----------------0-----2-----|--0-------------L-------------------|


  E  E  E  E  Q    E  E  Q       E  E  E  E  E  E  Q    Q     
-----0--------0---------------|--------0---------------------|
-----1--------1---------------|--------------0---------------|
-----2--------2-------0-------|-----2-------------------0----|
-----------3--L----2----------|-------------------------0----|
--0-----L----------------3----|--2-----L--0--L-----2---------|
--0-----L---------------------|-----------------5------------|


       ^                                                                   
                |---3--|  |---3--|                             |---3---|   
  Q    H        E   E  E  E   E  E     E  E  E  E  E  E  E  E  E   E   E   
-------0---------------0---------0--|-----------------5--1----------------|
-------0-----------10--------10-----|-----6--------3-----0----------------|
-------2--------7---------7---------|-----7--------4--------2-------------|
-------3----------------------------|--------------------------3p--2p--0--|
-------0----------------------------|-------------------------------------|
--0-------------L-------------------|--0--------0-------------------------|


                                                           NH    
  E  E  E  E  Q    E  E  Q       E  E  E  E  E  E  Q       Q     
-----0--------0---------------|-----0----------------------0----|
-----1--------1---------------|-----1-----3--L-------------0----|
-----2--------2-------0-------|-----2-----5--L-----0------------|
-----------3--L----2----------|--0-----------2--3-------<>12----|
--0-----L----------------3----|---------------------------------|
--0-----L---------------------|---------------------------------|


       ^                                              NH                  
                      |---3--|                                 |--3--|    
  Q    H        E  E  E  E   E      E  E   Q    E     E  E  E  E  E  E    
-------3-----------8--L----------|-----------------------------0---------|
-------5-----------------8-------|--------------0-----------6------------|
-------4--------9-----------10h--|--9--------------------0--------7------|
-------3--------9----------------|--------10-------------------------7h--|
-------0--------8----------------|-----8---L-------<>12------------------|
--0-------------L----------------|-----0---L-----------------------------|


                             >       >                              
                   |---3--|                                         
  E  E  Q    E  E  E   E  E  Q       E   E  E  E  Q    E   E  Q     
-----5----------1-----------------|---------3-------------10-------|
-----0----------0------------3----|------3-----3-----------8-------|
-----0----------2------------2----|------0-----------------8-------|
--0-----3----2-----0h--2----------|--1S-----------8----7-----------|
--------------------------3--2----|---------------------------8----|
----------------------------------|--------------------------------|


                                                   |--3--|        
  E  E  E  E  Q    E  E  E  E     E  E  E  E  Q    E  E  E  Q     
--------4----------------------|--------------0----------5-------|
-----4-----4----------4--------|--------3----------5-------------|
-----5----------------0--------|-----------2----------6-----0----|
--5----------------------3--5--|--2------------------------------|
--------------6----------------|-----0--------0------------------|
-------------------6-----------|---------------------------------|


  E  E  E  E  Q    E  E  Q       E  E  E  E  E  E  Q    Q     
-----0--------0---------------|--------0---------------------|
-----1--------1---------------|--------------0---------------|
-----2--------2-------0-------|-----2-------------------0----|
-----------3--L----2----------|-------------------------0----|
--0-----L----------------3----|--2-----L--0--L-----2---------|
--0-----L---------------------|-----------------5------------|


       ^                                                                   
                |---3--|  |---3--|                             |---3---|   
  Q    H        E   E  E  E   E  E     E  E  E  E  E  E  E  E  E   E   E   
-------0---------------0---------0--|-----------------5--1----------------|
-------0-----------10--------10-----|-----6--------3-----0----------------|
-------2--------7---------7---------|-----7--------4--------2-------------|
-------3----------------------------|--------------------------3p--2p--0--|
-------0----------------------------|-------------------------------------|
--0-------------L-------------------|--0--------0-------------------------|


                                                           NH    
  E  E  E  E  Q    E  E  Q       E  E  E  E  E  E  Q       Q     
-----0--------0---------------|-----0----------------------0----|
-----1--------1---------------|-----1-----3--L-------------0----|
-----2--------2-------0-------|-----2-----5--L-----0------------|
-----------3--L----2----------|--0-----------2--3-------<>12----|
--0-----L----------------3----|---------------------------------|
--0-----L---------------------|---------------------------------|


       ^                                                              
                      |---3--|                  |--3--|               
  Q    H        E  E  E  E   E      E  E  E  E  E  E  E  E  E  E  E   
-------3-----------8--L----------|-----------------------------------|
-------5-----------------8-------|--------------------------------0--|
-------4--------9-----------10h--|--9--------7--L-----------0--------|
-------3--------9----------------|--------------------0--------7-----|
-------0--------8----------------|--------8--------7-----------------|
--0-------------L----------------|-----0-----------------9-----------|


  E  E  E  E  Q    Q     Q        E  E  E  E  Q    E  E  Q     
--8----------------8----12----|--10---------------------------|
-----5--------5---------------|------0-----8--L---------------|
--5----------------5-----9----|---7--------0--L---------------|
-----7--------5---------------|---------0----------0--7-------|
--0--------0-------7-----0----|--10----------------------7----|
------------------------------|---------------5---------------|


                                                  |--3--|         
  E  E  E  E  Q    Q    Q       E  E  E  E  E  E  E  E  E  E  E   
------------------------8----|--7--------0--L--------------------|
--6--------------------------|-----0--------------------------0--|
-----5--------5---------7----|--0--------------------------0-----|
--3----------------7---------|--------4--2--L-----------4--------|
-----5--------5----8---------|--7-----------3--2-----2-----------|
--3--------3-----------------|--------------------2--------------|


                   |--3--|  |--3--|                                      
  E  E  E  E  Q    E  E  E  E  E  E     E  E  E  E  E   E   E   E  Q     
-------------------------------------|---------------------10-----------|
-----0--------1-------3--------3-----|-----------------/8------10-------|
-----2--------2----0-----2--------2--|-----5-----5-----------------8----|
-----0--------0-------------5--------|-----------4----------------------|
-------------------------------------|-----6--0-----6--------------9----|
--3--------3-------------------------|--4-------------------------------|


                   |--3--|  |--3--|           |--3--|               |--3--|   
  E  E  E  E  Q    E  E  E  E  E  E     E  E  E  E  E  E  E  E   E  E  E  E   
----------------------0--------0-----|--0-----------------0--4S--7-----------|
-----2--------3----------0--------0--|--3--------------------3---------------|
-----4--------4----2--------2--------|--4--0--------------1---------7--------|
-----2--------2----------------------|-----------------2---------------------|
-------------------------------------|--------5--3--2------------------7-----|
--5--------5--L----------------------|--6---------------------------------6--|


                                       |---3--|         |--3--|  |--3--|     
  E  E  E  E  Q    E  E  Q       E  E  E   E  E  E  E   E  E  E  E  E  E     
------------------------------|-----0--------------------------------------||
-----0--------0---------------|--------1p--0--------1p--0------------------||
-----0--------5---------------|---------------0------------0-----0--------*||
-----2--------5-------2-------|------------------2------------2-----2-----*||
--0--------0-------0-----2----|--0-------------------------------------0---||
------------------------------|--------------------------------------------||


  E  E  E  E  Q    E  E  E  E     E  E  E  E  Q    E  E  Q     
-----0--------0----------------|-----0--------0---------------|
-----1--------1----------1--0--|-----1--------1---------------|
-----2--------2----------------|-----2--------2----------0----|
--0--------0-------------2-----|--0--------0-------0----------|
----------------------0--------|----------------------0-------|
-------------------0-----------|-------------------------2----|


                                       ^                   
  E  E  E  E  Q    E  E  E  E     Q    H        H          
-----0--------0----------------|-------0--------L--------||
-----1--------1----------0--1--|-------1--------L--------||
-----2--------2----------0-----|-------2--------L--------||
-----------0-------------------|-------3--------L--------||
----------------------0--------|-------0--------L--------||
--0----------------0-----2-----|--0-------------L--------||




Duration Legend
---------------
W - whole
H - half
Q - quarter
E - 8th
S - 16th
T - 32nd
X - 64th
. - note dotted
|-n-|  - n-tuplets


Tablature Legend
----------------
L - tied note
> - accentuded note
NH - natural harmonic
h - hammer on
p - pull off
S - shift slide
s - legato slide
/ -  slide into from below or out of upwards
\ -  slide into from above or out of downwards
^ - brush up
v - brush down
Login or Register to remove this ad.

13 comments on Midna's Lament (arrangement)

derp

Hello shtamen

Oh man I would so love to

Oh man I would so love to play this right now but I'm away from my guitar for the next 3 weeks. Ill just be enjoying the guitar pro file in the meantime. It doesn't seem too hard and looks really fun! I really look forward to playing it!

oh man

5

oh man

Awesome man, love the idea

5

Awesome man, love the idea

Great arrangement, fun to

5

Great arrangement, fun to play.

/commence fanboyism

OMG STAMEN YOUR BACK POSTING TABS, I LOVE YOU SO MUCH. I THOUGHT I'D NEVER SEE THIS DAY.

YOUR MY HEERRO

Any chance of seeing the old master make a recording of this?

stamen I think I love you

5

stamen I think I love you

I have yet to play it, but

5

I have yet to play it, but just looking through i love it :3

i can't wait to play. Can't wait to see more out of stamen! Woo!

This is great, I love jazz

5

This is great, I love jazz interpretations :D

this is cool as hell

this is cool as hell

Awesome

5

Wow, this is very fun to play! And it sounds awesome! The walking bass in this arrangement is amazing! In a way it does sound a bit like Take 5! I love jazz arrangements and Legend of Zelda, so this is nothing short from amazing!

To play a song in 5/4 is

5

To play a song in 5/4 is difficult but to arrange a song into 5/4 is even more tricky ! Bravo !

Wow, thanks for all the

Wow, thanks for all the feedback! I wasn't sure how people would like it, I'm really happy you guys seem to enjoy it. Looks like the gametabs community is still awesome!

I can't believe I missed this

5

I can't believe I missed this one! Favorited!