Ads

Lake Hylia (Legend of Zelda: Twilight Princess) Guitar Tab

Submitted: Nov 15, 2013 by Alfa_ice

4.69231
Average: 4.7 (13 votes)
Download | Listen
Game: Legend of Zelda: Twilight Princess
Composer(s): Koji Kondo, Asuka Ohta, Toru Minegishi
Style: Arrangement, Fingerstyle, Natural harmonics
Series: Legend of Zelda

AutoScroll: Slow | Medium | Fast
                                  Lake Hylia                                    

The Legend of Zelda: Twilight Princess

Tabbed by: Alfa_ice
Tuning: DADGBE (Capo 4)
Difficulty: Easy


     E  E  E  E  E  E  H.              E  E  E  E  E  E  H.            
E||---------------------------------|---------------------------------|
B||--------------------2------------|--------------------2------------|
G||-----------------2---------------|-----------------2---------------|
D||--------0--2--4------------------|--------0--2--4------------------|
A||-----0---------------------------|-----0---------------------------|
D||--0------------------------------|--0------------------------------|


  E  E  E  E  E  E  Q    Q    Q       E  E  E  E  E  E  Q    Q    Q     
--------------0-----2----5----3----|--2--------------------------------|
--------3-----------2--------------|--------3-----------2---------3----|
--2--------------2-----------------|-----------------2-------2---------|
--------0--2--4--------------------|--------0--2--4--------------------|
-----0-----------------------------|-----0-----------------------------|
--0--------------------------------|--0--------------------------------|


  E  E  E  E  E  E  H.              E  E  E  E  E  E  H.            
--------------------0------------|--------------------0------------|
--1--------------1---------------|-----------------1---------------|
-----------0--2------------------|-----------0--2------------------|
--------3------------------------|--------3------------------------|
-----3---------------------------|-----3---------------------------|
--3------------------------------|--3------------------------------|


  E  E  E  E  E  E  Q    Q    Q       E  E  E  E  E  E  Q    Q    Q     
--------------0-----2----5----3----|--2--------------------------------|
--------3-----------2--------------|--------3-----------2----2----3----|
--2--------------2-----------------|-----------------2-----------------|
--------0--2--4--------------------|--------0--2--4--------------------|
-----0-----------------------------|-----0-----------------------------|
--0--------------------------------|--0--------------------------------|


  E  E  E  E  E  E  H.              E  E  E  E  E  E  H.            
--5-----------------0------------|--------------------0------------|
-----------------1---------------|-----------------1---------------|
-----------0--2------------------|-----------0--2------------------|
--------3------------------------|--------3------------------------|
---------------------------------|-----3---------------------------|
--3--L---------------------------|--3------------------------------|


  E  E  E  E  E  E  H.              E  E  E  E  E  E  H.            
---------------------------------|---------------------------------|
--------------------2------------|--------------------2------------|
-----------------2---------------|-----------------2---------------|
--------0--2--4------------------|--------0--2--4------------------|
-----0---------------------------|-----0---------------------------|
--0------------------------------|--0------------------------------|


  E  E  E  E  E  E  H.              E  E  E  E  E  E  H.            
--------------------0------------|--------------------0------------|
-----------------1---------------|-----------------1---------------|
-----------0--2------------------|-----------0--2------------------|
--------3------------------------|--------3------------------------|
-----3---------------------------|-----3---------------------------|
--3------------------------------|--3------------------------------|


    E  E  E  E  E  E  Q    Q    Q       E  E  E  E  E  E  Q    Q    Q     
|---------------0-----2----5----3----|--2--------------------------------|
|---------3-----------2--------------|--------3-----------2---------3----|
|*--2--------------2-----------------|-----------------2-------2---------|
|*--------0--2--4--------------------|--------0--2--4--------------------|
|------0-----------------------------|-----0-----------------------------|
|---0--------------------------------|--0--------------------------------|


  E  E  E  E  E  E  H.              E  E  E  E  E  E  H.            
--------------------0------------|--------------------0------------|
--1--------------1---------------|-----------------1---------------|
-----------0--2------------------|-----------0--2------------------|
--------3------------------------|--------3------------------------|
-----3---------------------------|-----3---------------------------|
--3------------------------------|--3------------------------------|


  E  E  E  E  E  E  Q    Q    Q       E  E  E  E  E  E  Q    Q    Q     
--------------0-----2----5----3----|--2--------------------------------|
--------3-----------2--------------|--------3-----------2----2----3----|
--2--------------2-----------------|-----------------2-----------------|
--------0--2--4--------------------|--------0--2--4--------------------|
-----0-----------------------------|-----0-----------------------------|
--0--------------------------------|--0--------------------------------|


  E  E  E  E  E  E  H.              E  E  E  E  E  E  Q    Q    Q     
--5-----------------0------------|--------------------0--------------|
-----------------1---------------|-----------------1-----------------|
-----------0--2------------------|--------------2----------0----2----|
--------3------------------------|--------3--5-----------------------|
---------------------------------|-----3-----------------------------|
--3--L---------------------------|--3--------------------------------|


  E  E  E  E  E  E  Q    Q    Q       E  E  E  E  E  E  Q    Q    Q     
-----------------------------------|-----------------------------------|
-----------------------------------|-----------------------------------|
--------------------2--------------|--------------------5--------------|
--0-----------0--3-------2----3----|--2-----------2--5-------4----5----|
--0-----0--1-----------------------|--3-----2--3-----------------------|
-----0-----------------------------|-----2-----------------------------|


  E  E  E  E  E  E  Q    Q    Q       E  E  E  E  E  E  Q    Q    Q     
-----------------------------------|-----------------------------------|
--------------------0--------------|--2-----------------0----0---------|
-----------------------------------|-----------------------------------|
--4-----------0--4-------3----4----|--------------0--4------------4----|
--2-----2--4-----------------------|--4-----2--4-----------------------|
-----4-----------------------------|-----3-----------------------------|


  E  E  E  E  E  E  Q    Q    Q       E  E  E  E  E  E  H.            
-----------------------------------|---------------------------------|
-----------------------------------|---------------------------------|
--------------------2--------------|--------------------1------------|
--2-----------0--4-------0---------|--0-----------0--2---------------|
--0-----0--1------------------4----|--2-----0--2--------4------------|
-----2-----------------------------|-----0---------------------------|


  H.           H.              H.           H.            
---------------0------------|--1------------3------------|
--3-------------------------|----------------------------|
----------------------------|---------------0------------|
--0------------2------------|--3-------------------------|
----------------------------|----------------------------|
----------------------------|----------------------------|


  E  E  E  E  E  E  H.              E  E  E  E  E  E  H.            
--5------------------------------|---------------------------------|
--------------------2------------|--------------------2------------|
--2--------------2---------------|-----------------2---------------|
--------0--2--4------------------|--------0--2--4------------------|
-----0---------------------------|-----0---------------------------|
--0------------------------------|--0------------------------------|


  E  E  E  E  E  E  H.              E  E  E  E  E  E  H.            
--------------------0------------|--------------------0------------|
-----------------1---------------|-----------------1---------------|
-----------0--2------------------|-----------0--2------------------|
--------3------------------------|--------3------------------------|
-----3---------------------------|-----3---------------------------|
--3------------------------------|--3------------------------------|


  ^                  NH                             
  W                  H           W.                 
------------------------------|-------------------||
--3---------------------------|-------------------||
--2----------------<>7--------|--L----------------||
--0----------------<>7--------|--L----------------||
--0---------------------------|--L----------------||
--0---------------------------|--L----------------||




Duration Legend
---------------
W - whole
H - half
Q - quarter
E - 8th
S - 16th
T - 32nd
X - 64th
. - note dotted
|-n-|  - n-tuplets


Tablature Legend
----------------
L - tied note
NH - natural harmonic
^ - brush up
Login or Register to remove this ad.

5 comments on Lake Hylia

Sounds great

5

It's very relaxing to play too. It makes me want to reconnect my Gamecube and hunt down my copy of Twilight Princess.

Someone gave it a 3...?

Someone gave it a 3...? Either you have no musical intelligence, you missed the capo & the drop D, or I guess I'm beginning to crowd up some haters as well, because it's always someone giving a first "low vote" on every arrangement I upload to gametabs nowadays :D

Perfect arrangement. easy &

5

Perfect arrangement. easy & beautiful :D
The tab must be study with help of your video, it shows well the right hand fingering. For me, it became easy after watching then understanding of your thumb movements.
Thanks to share it ^^

i just gazed through it and

5

i just gazed through it and it looks pretty damn awesome! :D

i too would like people who rate tabs low to give why they rated it as such. :\

Exactly! I encouraged that on

Exactly! I encouraged that on one of my other "low voted" tabs recently.. Criticism is welcome! Because it helps me improve till next time.. as for this arrangement, all I can think of is that I couldn't include the lowest bass notes on measure 23-28, because it would only make the arrangement harder with a drop C for example.