Ads

Lake Hylia (Legend of Zelda: Twilight Princess) Guitar Tab

Submitted: Mar 14, 2012 by Andarnio

5
Average: 5 (3 votes)
Download | Listen
Game: Legend of Zelda: Twilight Princess
Composer(s): Koji Kondo, Asuka Ohta, Toru Minegishi
Style: 2 or more instruments, Transcription
Series: Legend of Zelda

AutoScroll: Slow | Medium | Fast
Lake Hylia
The Legend of Zelda: Twilight Princess
Composed by Koji Kondo
Guitar 1 part from archard and guitar 2 part (also posted in the comments of his tabs) from me.

Guitar 1
e----------------------------------------------------------
B----------2--------------------------------2-------------2
G------1-3---4-3------------------------1-3---4-3----------
D----4-----------4-----4-2------------4-----------4---3-4--
A--4-----------------4--------------4----------------------
E---------------------------------------------------------- x2

e---------------------------------------1----------------------
B----2---------------------0-----------------4-----------------
G--4----------1-2-1----1-3---3----3-2-3--------3-1----1--------
D------4----4-------------------------------------------4-3-1--
A--------------------------------------------------------------
E--------------------------------------------------------------

e-----------------------
B----------------------2
G----------1---2---4----
D--3---4----------------
A-----------------------
E-----------------------

Guitar 2
e-------------------------1
B---------------------2----
G-------------1---3--------
D----------4---------------
A-------4------------------
E----2---------------------

then:

e---------------------------4
B------------------------5---
G----------------4---6-------
D------------7---------------
A--------7-------------------
E----5-----------------------
Login or Register to remove this ad.

11 comments on Lake Hylia

=D

yeah I really enjoy the second guitar =D good job ^_^

Link

Thx :D it's based on a piano

Thx :D
it's based on a piano note sheet

Piano note sheet

Do you mind sending me that note sheet....i would really appreciate it if you could, if not let me know also. if so, message me and i will give you my email.

Sorry but

http://www.youtube.com/watch?v=wTzZFiscP1Q
Sorry but i cant find it, but here's a synthesia version i you need it :D (not made by me)

Thanks for the reply

Thank you for the link, it really does help. I'll probably be able to transcribe the sheet music by watching the video. :P

Ever hear of google?

...

Nope

http://lmgtfy.com/?q=google Y

http://lmgtfy.com/?q=google
YOU'RE WELCOME BRAH

LOL

LOL

Woah

Mind Explosion.

great tab

5

Great job the song is really accurate
I really love both parts of the song =)