Ads

Ilia's Theme (Legend of Zelda: Twilight Princess) Guitar Tab

Submitted: May 15, 2017 by chimatte (Last updated: May 15, 2017)

3.666665
Average: 3.7 (3 votes)
Download | Listen
Game: Legend of Zelda: Twilight Princess
Composer(s): Koji Kondo, Asuka Ohta, Toru Minegishi
Style: Arrangement, Fingerstyle
Series: Legend of Zelda

Click here for a video example.

AutoScroll: Slow | Medium | Fast
Ilia's Theme
Legend of Zelda - Twilight Princess
Toru Minegishi
arr. chit. Giuseppe De Matteis
Dropped D Tuning

     Q    E  E     E  E  E  E  Q    E  E     E  E  E  E  Q    E  E   
E||-------8--7--|--3--L--L--L--L----8--7--|--3--L--L--L--L----8--7--|
B||-------------|-------------------------|-------------------------|
G||-------------|-------------------------|--------0--2--L----------|
D||-------------|--------5--7--L----------|-------------------------|
A||-------------|-----3-------------------|-----3-------------------|
D||-------------|--3----------------------|--2----------------------|


  E  E  E  E  E  E  E  E     E  E  E  E  Q    E  E     E  E  E  E  Q    E  E   
--3--L--L--L-----------5--|--3--L--L--0--L----8--7--|--3--L--L--L--L----8--7--|
-----------------6--5-----|--------3----------------|-------------------------|
-----------2--------------|-----0-------------------|-------------------------|
--------3-----------------|-------------------------|--------3--7--L----------|
-----3--------------------|--3----------------------|-----3-------------------|
--0-----------5--L--L--L--|-------------------5--L--|--3----------------------|


  E  E  E  E  Q    E  E     E  E  E  E  E  E  E  E     E  E  E  E  E  E  E  E   
--3--L--L--L--L----8--7--|--3--L--L--L-----0--1--0--|-----------0--L-----------|
-------------------------|--------------------------|--1--L--3-----------0--1--|
--------0--2--L----------|-----------2--------------|-----0-----------0--------|
-------------------------|--------3-----0--L--L--L--|--------------------------|
-----3-------------------|-----3--------1--L--L--L--|--3-----------------3--L--|
--2----------------------|--0-----------------------|--------------------------|


  E  E  E  E  E  E  E  E     E  E  E  E  E  E  E  E   
--3--L--L--L-----1--0--5--|--3--L--L--0--L--1--0--5--|
--------1--3--L--L--------|--------3-----------------|
--------------------------|--------------------------|
--0--3--------------------|--2--3--------------------|
--------------------------|--------------------------|
--------------------------|--------------------------|


  E  E  E  E  E  E  E  E     E  E  E  E  Q     E  E   
--3--L--L--0-----1--0-----|--0--------------------7--|
--------1-----------------|-----------1--L----10-----|
-----2--------------2--2--|--------0-----------------|
--3--------------0--------|-----2--------------------|
--------------1-----------|--0-----------------------|
--------------------------|--------------------------|


  E   E  E   E   E   E   E   E     E   E  E   E   E   E   E   E   
--8---L--L---L--------------10--|--8---L--L---L----------10--12--|
---------8--10---L--12--10------|---------8--10---L--------------|
--------------------12----------|--------------------12----------|
-----10-----------------10---L--|-----10-----------------10---L--|
--8-----------------------------|--7-----------------------------|
--------------------------------|--------------------------------|


   E   E   E   E   E   E   E   E      E   E   E  E  H           
--13---L---L---L--15---L---L---L--|--10---L------8--5---------||
--------------10---L--------------|----------10-----6---------||
----------10----------------------|---0---7---------5--------*||
---0----------------------12--15--|--------------------------*||
------13--------------13----------|-----------------5---------||
----------------------------------|---------------------------||




Duration Legend
---------------
W - whole
H - half
Q - quarter
E - 8th
S - 16th
T - 32nd
X - 64th
. - note dotted
|-n-|  - n-tuplets
Login or Register to remove this ad.