Ads

Hyrule Field (Legend of Zelda: Twilight Princess) Guitar Tab

Submitted: Sep 09, 2013 by Alfa_ice

5
Average: 5 (3 votes)
Download | Listen
Game: Legend of Zelda: Twilight Princess
Composer(s): Koji Kondo, Asuka Ohta, Toru Minegishi
Style: Arrangement, Fingerstyle
Series: Legend of Zelda

AutoScroll: Slow | Medium | Fast
                                 Hyrule Field                                   

The Legend of Zelda: Twilight Princess
Standard tuning: EADGBE
Difficulty: Hard
Tabbed by: Alfa_ice




     Q    S  S  S S  H           Q    S  S  S S  H         
E||---------------5h-7--------|---------------5h-7--------|
B||-------5h-7h-8-------------|-------5h-7h-8-------------|
G||---------------------------|---------------------------|
D||---------------------------|---------------------------|
A||---------------------------|---------------------------|
E||--0---------------L--------|--0---------------L--------|


  E  E  E  E  E  E  E  E     E  E  E  E  E  E  E  E   
--------------------------|--------------------------|
--3--3-----3-----3-----3--|--3--3-----3-----3-----3--|
--4--4-----4-----4-----4--|--4--4-----4-----4-----4--|
--0--0-----0-----0-----0--|--0--0-----0-----0-----0--|
--------------------------|--------------------------|
--------------------------|--------------------------|


  E  E  E  E  E  E  E  E     E  E  E  S  S E  E  E  E   
--------3--L--2--L--------|----------------------------|
--0-----------------3--L--|--2--------L----2-----L-----|
--------------------------|-----------4p-2-------------|
--------------------------|----------------------------|
--2--2-----2-----2-----2--|--4--4-----4--L----4-----4--|
--------------------------|----------------------------|


  E  E  E  E  E  E  E  E     E  E  E  S  S E  E  E  E   
--------3--L--2--L--------|--0-----L--2S-3-5-----L-----|
--0-----------------3--L--|----------------------------|
--------------------------|----------------------------|
--------------------------|----------------------------|
--2--2-----2-----2-----2--|--4--4-----4--L----4--L--4--|
--------------------------|----------------------------|


  E   E  E  E  E  E  E  E      E  E  E  E   E  E  E  E   
--7~-----------------L-----|---------8--L---------------|
---------------------------|---------------12--L--8--L--|
---------------------------|--10------------------------|
---------------------------|----------------------------|
---------------------------|----------------------------|
--7---7-----7-----7--L--7--|---8--8-----8------8--L--8--|


   E  E  E  E  E  E  E  S   S    E  E  E  E  E  E  E  E   
------------------------------|--------------------------|
--10-----------------L--8h-10-|--7-----------------L-----|
------------------------------|--------------------------|
---0--0-----0-----0--L--0-----|--------------------------|
------------------------------|--6--6-----6-----6-----6--|
------------------------------|--------------------------|


  E  E  E  E  E  E  E  E     E  E  E  S  S E  E  E  E   
--------3--L--2--L--------|----------------------------|
--0-----------------3--L--|--2--------L----2-----L-----|
--------------------------|-----------4p-2-------------|
--------------------------|----------------------------|
--2--2-----2-----2-----2--|--4--4-----4--L----4-----4--|
--------------------------|----------------------------|


  E  E  E  E  E  E  E  E     E  E  E  S  S E  E  E  S  S  
--------3--L--2--L--------|--0-----L--2S-3-5-----L-------|
--0-----------------3--L--|-------------------------0h-2-|
--------------------------|------------------------------|
--------------------------|------------------------------|
--2--2-----2-----2-----2--|--4--4-----4--L----4--L--2----|
--------------------------|------------------------------|


  E  E  E  E  E  E  Q       E  E  E  E  E  Q.        E  E  E  E  E  E  Q     
--------------------2----|--0--------------L------|-------------------------|
--3-----------------L----|------------------------|--------------------3----|
--4-----------------L----|--------2--------L------|--0--L--------------L----|
-------------------------|--2---------------------|--0-----------------L----|
--2--2-----2--L--2--L----|--0--0-----0--L--0------|-------------------------|
-------------------------|------------------------|--3--3-----3--L--3--L----|


  E  E  E  E  E  E  Q       E  S  S E  E  E  Q.        E  S  S E  E  E  Q.      
-------------------------|--------------------------|--------------------------|
--2-----------------L----|----------0--------L------|--0--0h-2-3--------L------|
-------------------------|--0--0h-2-----------------|--------------------------|
--------4-----------L----|--0----------------L------|--------------------------|
--4----------------------|--------------------------|--------------------------|
--2--2-----2--L--2--L----|--3--3----L--3--L--3------|--4--4----L--4--L--4------|


  E  S  S E  E  E  Q.        E  S  S E  E  E  Q.      
--------------------------|----------0--------L------|
----------2--------L------|--2--2h-3-----------------|
--2--2h-4-----------------|--------------------------|
--2----------------L------|--------------------------|
--0--0----L--0--L--0------|--1--1----L--1--L--1------|
--------------------------|--------------------------|


  E  E  E  E  E  E  E  E     E  E  E  E  E  E  E  E     E  E  E  E  E  E  Q     
--------------------------|--------------------------|-------------------------|
-----3-----3-----3-----3--|--3--3-----3-----3-----3--|-------------------------|
-----4-----4-----4-----4--|--4--4-----4-----4-----4--|-----------------1--2----|
--------------------------|--------------------------|--4--2--0--2--4----------|
--2--2--------2--2--------|--2--2--------2--2--------|--2--2--------2--2-------|
--------------------------|--------------------------|-------------------------|


  E  E  E  E  E  E  Q       E  E  E  E  E  E  E  E     S  S E  Q    E  E  Q     
-------------------------|--------------------------|--------------------------|
--------------------0----|-----------------------0--|--------------------------|
--1-----------1--2-------|-----------------1--2-----|--1h-2-1-------------L----|
-----4--2--4-------------|--4--2--0--2--4-----------|--------------------------|
--2--2--------2--2-------|--2--2--------2--2--------|--2--L-2-------2--2-------|
-------------------------|--------------------------|--------------------------|


  E  E  E  E  E  E  Q       E  E  E  E  E  E  Q       E  E  E  E  E  E  E  E   
-------------------------|--------------------0----|-----------------------0--|
--0-----------0--2--3----|--2--0-----0--2--3-------|--0-----------0--2--3-----|
-----2--0--2-------------|--------2----------------|-----2--0--2--------------|
--2--2--------2--2-------|--2--2--------2--2-------|--2--2--------2--2--------|
-------------------------|-------------------------|--------------------------|
-------------------------|-------------------------|--------------------------|


  S  S E  Q    E  E  Q       E  E  E  E  E  E  Q       E  E  E  E  E  E  E  E   
--------------------------|-------------------------|--------0--L-----L--------|
--2h-3-2-------------L----|-----------------0--2----|--------------4--L--0--L--|
--------------------------|--2--0-----0--2----------|--1--L--------------------|
--2--L-2-------2--2-------|--------4----------------|--------------------------|
--------------------------|-------------------------|--4--4-----4-----4-----4--|
-----L--------------------|--3--3--------3--3-------|--------------------------|


  E  E  E  E  E  E  Q       E  E  E  E  E  E  E  E     E  E  E  E  E  E  Q     
-------------------------|--------0--L-----L--------|-------------------------|
-----------------0--2----|--------------4--L--0--L--|--------------------1----|
--2--0-----0--2----------|--1--L--------------------|--2--0-----0--2--3-------|
--------4----------------|--------------------------|--------3----------------|
-------------------------|--4--4-----4-----4-----4--|--1--1--------1--1-------|
--3--3--------3--3-------|--------------------------|-------------------------|


  E  E  E  E  E  E  E  E     E  E  E  E  E  Q    S  S  
--------1--L--0--L--------|---------------------------|
--------------------1--L--|--0--------------L---------|
--------------------------|----------------------2p-0-|
--3--L--------------------|--2--2-----2-----2---------|
--0--0-----0-----0-----0--|---------------------------|
--------------------------|---------------------------|


  E  E  E  E  E  E  E  E     E  E  E  E  E  E  E  E   
--------------------------|--------3--L--2--L--------|
--------------------------|--0-----------------3--L--|
--------------------------|--------------------------|
--4--------------------L--|--------------------------|
--0--0-----0-----0-----0--|--2--2-----2-----2-----2--|
--------------------------|--------------------------|


  E  E  E  S  S E  E  E  E     E  E  E  E  E  E  E  E   
----------------------------|--------3--L--2--L--------|
--2--------L----2-----L-----|--0-----------------3--L--|
-----------4p-2-------------|--------------------------|
----------------------------|--------------------------|
--4--4-----4--L----4-----4--|--2--2-----2-----2-----2--|
----------------------------|--------------------------|


  E  E  E  S  S E  E  Q       Q    Q    Q    Q       Q    Q    Q    Q     
--0-----L--2S-3-5-----L----|-------L----4---------|-------L----5---------|
---------------------------|----------------------|----------------------|
---------------------------|----------------------|----------------------|
---------------------------|----------------------|----------------------|
--4--4-----4-------L--2----|-------2---------2----|-------2---------5----|
----------------------2----|-------2---------2----|-------2---------5----|


  Q    Q    Q    Q       Q    Q    Q    Q       Q    Q    Q    Q     
-------L----6---------|-------L--------------|----------------------|
----------------------|------------8---------|-------L----9---------|
----------------------|----------------------|----------------------|
----------------------|----------------------|----------------------|
-------5---------5----|-------5---------6----|-------6---------6----|
-------5---------5----|-------5---------6----|-------6---------6----|


  Q    Q    Q    E  E     E  E  E  E  Q    E  E     E  E  E  E  Q    E  E   
-----------------------|-------------------------|-------------------------|
-------L---------------|-------------------------|-------------------------|
-----------------------|-------------------------|-------------------------|
-----------------------|-------------------------|-------------------------|
-------6---------------|-------------------------|--------------0-------0--|
-------6----2-------2--|--L-----2-----3-------3--|--L-----3----------------|


  E  E  E  E  Q    E  E     E  E  Q    Q    E  E     Q    E  E  Q    E  E   
-------------------------|------------------------|------------------------|
-------------------------|------------------------|------------------------|
-------------------------|------------------------|-------------6----------|
-------------------------|---------------------L--|--7----6--L-------6-----|
--L-----0----------------|------------------------|------------------------|
--------------6-------6--|--L-----6---------7--7--|-------7--7-------7--7--|


  Q    E  E  Q    E  E     Q    E  E  E  E  E  E     Q    E  E  E  E  E  E   
------------------------|-------------0-----------|--L----------------8-----|
------------------------|-------0--L--------------|----------------6--------|
------------------------|-------------------------|-------8--L--7-----------|
-------------L----3--L--|--6----------------------|-------------------------|
------------------5--5--|-------5--5--------5--5--|-------6--6--------6--6--|
-------7--7-------------|-------------------------|-------------------------|


  Q    E  E  Q    E  E     Q    E  E  Q    Q       Q    E  E  Q    E  E   
--L---------------------|-----------------------|------------------------|
-------6-----0-------L--|--3-------L--4---------|-------L----------------|
--L-------7-------------|-----------------------|-------------2----------|
------------------1--1--|-------1--1------------|------------------------|
-------6--6-------------|-----------------------|------------------------|
------------------------|------------------2----|-------2--L--3-------3--|


  E  E  E  E  Q    E  E     E  E  E  E  Q    E  E     E  E  E  E  E  E  E  E   
-------------------------|-------------------------|--------------------------|
--------------0----------|-----------L-------------|--------------------------|
-----------L-------------|-------------------------|-----------------4-----4--|
-------------------------|--------------3----------|--------L--------5-----5--|
--------------0-------0--|--L-----0-----1-------1--|--L-----1-----------------|
--L-----3----------------|-------------------------|--------------0--0--------|


  E  E  E  E  E  E  E  E     E  E  E  E  E  E  E  E   
--------------------------|--------------------------|
--------------------------|--------------------------|
-----4-----4--4--4-----4--|-----4-----4--2--2-----2--|
-----5-----5--5--5-----5--|-----5-----5--4--4-----4--|
--------------------------|--------------------------|
-----------0--0--0--------|--------------0--0--------|


  E  E  E  E  E  E  E  E     E  E  E  E  E  E  E  E   
--------------------------|--------------------------|
--------------------------|--------------------------|
-----2-----2--2--2-----2--|-----2-----2--4--4-----4--|
-----4-----4--4--4-----4--|-----4-----4--5--5-----5--|
--------------------------|--------------------------|
-----------0--0--0--------|--------------0--0--------|


  E  E  E  E  E  E  E  E     E  E  E  E  E  E  E  E   
--------------------------|--------------------------|
--------------------------|--------------2--2-----2--|
-----4-----4--4--4-----4--|-----4-----4--2--2-----2--|
-----5-----5--5--5-----5--|-----5-----5--------------|
--------------------------|--------------------------|
-----------0--0--0--------|--------------0--0--------|


  E  E  E  E  E  E  E  E     E  E  E  E  E  E  E  E   
--------------------------|--------------------------|
-----2-----2--2--2-----2--|-----2-----2--3--3-----3--|
-----2-----2--2--2-----2--|-----2-----2--4--4-----4--|
--------------------------|--------------------------|
--------------------------|--------------------------|
-----------0--0--0--------|--------------0--0--------|


  E  E  E  E  E  E  E  E     E  E  E  E  E  E  E  E   
--------------------------|--------------------------|
-----3-----3--3--3-----3--|-----3-----3--1--1-----1--|
-----4-----4--4--4-----4--|-----4-----4--2--2-----2--|
--------------------------|--------------------------|
--------------------------|--------------------------|
-----------0--0--0--------|--------------0--0--------|


  E  E  E  E  E  E  E  E     E  E  E  E  E  E  E  E   
--------------------------|--------------------------|
-----1-----1--1--1-----1--|-----1-----1--3--3-----3--|
-----2-----2--2--2-----2--|-----2-----2--4--4-----4--|
--------------------------|--------------------------|
--------------------------|--------------------------|
-----------0--0--0--------|--------------0--0--------|


  E  E  E  E  E  E  E  E     E  E  E  E  E  E  E  E   
--------------------------|--------------------------|
-----3-----3--3--3-----3--|-----3-----3--4--4-----4--|
-----4-----4--4--4-----4--|-----4-----4--------------|
--------------------------|--------------4--4-----4--|
--------------------------|--------------------------|
-----------0--0--0--------|--------------0--0--------|


  E  E  E  E  E  E  E  E     E  E  E  E     E  E  E  E  E  E  Q     
--------------------------|--------------|-------------------------|
-----4-----4--4--4-----4--|-----4-----4--|-------------------------|
--------------------------|--------------|-----------------1--2----|
-----4-----4--4--4-----4--|-----4-----4--|--4--2--0--2--4----------|
--------------------------|--------------|--2--2--------2--2-------|
-----------0--0--0--------|--------------|-------------------------|


  E  E  E  E  E  E  Q       E  E  E  E  E  E  E  E     S  S E  Q    E  E  Q     
-------------------------|--------------------------|--------------------------|
--------------------0----|-----------------------0--|--------------------------|
--1-----------1--2-------|-----------------1--2-----|--1h-2-1-------------L----|
-----4--2--4-------------|--4--2--0--2--4-----------|--------------------------|
--2--2--------2--2-------|--2--2--------2--2--------|--2--L-2-------2--2-------|
-------------------------|--------------------------|--------------------------|


  E  E  E  E  E  E  Q       E  E  E  E  E  E  Q       E  E  E  E  E  E  E  E   
-------------------------|--------------------0----|-----------------------0--|
--0-----------0--2--3----|--2--0-----0--2--3-------|--0-----------0--2--3-----|
-----2--0--2-------------|--------2----------------|-----2--0--2--------------|
--2--2--------2--2-------|--2--2--------2--2-------|--2--2--------2--2--------|
-------------------------|-------------------------|--------------------------|
-------------------------|-------------------------|--------------------------|


  S  S E  Q    E  E  Q       E  E  E  E  E  E  Q       E  E  E  E  E  E  E  E   
--------------------------|-------------------------|--------0--L-----L--------|
--2h-3-2-------------L----|-----------------0--2----|--------------4--L--0--L--|
--------------------------|--2--0-----0--2----------|--1--L--------------------|
--2--L-2-------2--2-------|--------4----------------|--------------------------|
--------------------------|-------------------------|--4--4-----4-----4-----4--|
-----L--------------------|--3--3--------3--3-------|--------------------------|


  E  E  E  E  E  E  Q       E  E  E  E  E  E  E  E     E  E  E  E  E  E  Q     
-------------------------|--------0--L-----L--------|-------------------------|
-----------------0--2----|--------------4--L--0--L--|--------------------1----|
--2--0-----0--2----------|--1--L--------------------|--2--0-----0--2--3-------|
--------4----------------|--------------------------|--------3----------------|
-------------------------|--4--4-----4-----4-----4--|--1--1--------1--1-------|
--3--3--------3--3-------|--------------------------|-------------------------|


  E  E  E  E  E  E  E  E     E  E  E  E  E  E  E  S  S  
--------1--L--0--L--------|----------------------------|
--------------------1--L--|--0-----------------L-------|
--------------------------|-----------------------2p-0-|
--3--L--------------------|--2--2-----2-----2----------|
--0--0-----0-----0-----0--|----------------------------|
--------------------------|----------------------------|


  E  E  E  E  E  E  E  E     E  E  E  E  E  E  E  E   
--------------------------|--------3--L--2--L--------|
--------------------------|--0-----------------3--L--|
--------------------------|--------------------------|
--4--------------------L--|--------------------------|
--0--0-----0-----0-----0--|--2--2-----2-----2-----2--|
--------------------------|--------------------------|


  E  E  E  S  S E  E  E  E     E  E  E  E  E  E  E  E   
----------------------------|--------3--L--2--L--------|
--2--------L----2-----L-----|--0-----------------3--L--|
-----------4p-2-------------|--------------------------|
----------------------------|--------------------------|
--4--4-----4--L----4-----4--|--2--2-----2-----2-----2--|
----------------------------|--------------------------|


  E  E  E  S  S E  E  E  E     E   E  E  E  E  E  E  E   
--0-----L--2h-3-5-----L-----|--7~-----------------L-----|
----------------------------|---------------------------|
----------------------------|---------------------------|
----------------------------|---------------------------|
--4--4-----4--L----4-----4--|---------------------------|
----------------------------|--7---7-----7-----7--L--7--|


   E  E  E  E   E  E  E  E      E  E  E  E  E  E  E  S   S  
---------8--L---------------|------------------------------|
---------------12--L--8--L--|--10-----------------L--8h-10-|
--10--L---------------------|------------------------------|
----------------------------|---0--0-----0-----0--L--0-----|
----------------------------|------------------------------|
---8--8-----8------8--L--8--|------------------------------|


  E  E  E  E  E  E  E  E     E  E  E  E  E  E  E  E   
--------------------------|--------3--L--2--L--------|
--7-----------------L-----|--0-----------------3--L--|
--------------------------|--------------------------|
--------------------------|--------------------------|
--6--6-----6-----6-----6--|--2--2-----2-----2-----2--|
--------------------------|--------------------------|


  E  E  E  S  S E  E  E  E     E  E  E  E  E  E  E  E   
----------------------------|--------3--L--2--L--------|
--2--------L----2-----L-----|--0-----------------3--L--|
-----------4p-2-------------|--------------------------|
----------------------------|--------------------------|
--4--4-----4--L----4-----4--|--2--2-----2-----2-----2--|
----------------------------|--------------------------|


  E  E  E  S  S E  E  E  S S    E  E  E  E  E  E  E  E   
--0-----L--2h-3-5-----L------|--------------------2--L--|
-------------------------0-2-|--3-----------------L-----|
-----------------------------|--4-----------------L-----|
-----------------------------|--------------------------|
--4--4-----4--L----4--L--2---|--2--2-----2--L--2-----L--|
-----------------------------|--------------------------|


  E  E  E  E  E  Q.        E  E  E  E  E  E  Q       E  E  E  E  E  Q.      
--0--------------L------|-----------------L-------|------------------------|
------------------------|--------------------3----|--2--------------L------|
--------2--------L------|--0--L--------------L----|------------------------|
--2--------------L------|--0-----------------L----|--------4--------L------|
--0--0-----0--L--0------|-------------------------|--4--------------L------|
------------------------|--3--3-----3--L--3--L----|--2--2-----2--L--2------|


  E  S  S E  E  E  Q.        E  S  S E  E  E  Q.      
--------------------------|--------------------------|
----------0--------L------|--0--0h-2-3--------L------|
--0--0h-2-----------------|--------------------------|
--0----------------L------|--------------------------|
--------------------------|--------------------------|
--3--3----L--3--L--3------|--4--4----L--4--L--4------|


  E  S  S E  E  E  Q.        E  S  S E  E  E  Q.      
--------------------------|----------0--------L------|
----------2--------L------|--2--2h-3-----------------|
--2--2h-4-----------------|--------------------------|
--2----------------L------|-------------------L------|
--0--0----L--0--L--0------|--1--1----L--1--L--1------|
--------------------------|--------------------------|


                                                        ^                   
  E  E  E  E  E  E  E  E     E  E  E  E  E  E  E  E     H        Q    Q     
--------------------------|--------------------------|-----------0----2----|
-----3-----3-----3-----3--|--3--3-----3-----3-----3--|--3------------------|
-----4-----4-----4-----4--|--4--4-----4-----4-----4--|--4------------------|
--------------------------|--------------------------|--5------------------|
--2--2--------2--2--------|--2--2--------2--2-----2--|--5------------------|
--------------------------|--------------------------|--3------------------|


  ^                         ^                                          
  E  H        Q    E     E  E  H        E  S S     E  H.           E   
--5--L----------------|-------------------------|---------------------|
--5-----------5-------|--L--2--L--------L--2----|---------------------|
--6----------------7--|--L--2----------------4h-|--2---------------L--|
--7-------------------|-----4-----------L-------|-----L---------------|
--7-------------------|-----4-----------L-------|---------------------|
--5-------------------|-----2-------------------|-----2------------L--|


  ^                     ^                       ^                         
  H        Q    Q       E  E  H        Q        E  Q    Q.     S S  S  S  
-----------0----2----|--5--L-----------9----|---9--L----L------L-7S-9-10-|
--3--------L---------|--5-------------------|---9------------------------|
--4--------L---------|--6-------------------|----------------------------|
--5------------------|--7-------------------|--11----------------0--L----|
--5--------L---------|--7-----L--------L----|--11------------------------|
--3------------------|--5-------------------|---9----------------------7-|


   S Q    E  E  E  E  E.     E  E  E  E  E  E  Q       E  E  E  S S E  Q    E   
---L------L-----L---------|--------3--L--2--L-------|--------------------------|
--------------------------|--0-----------------3----|--2-----L-----------------|
--------------------------|-------------------------|--------------------------|
--------------------------|-------------------------|-----------2---L--3----5--|
--------------------------|--2--2-----2-----2--L----|--4--4-----4-L----4----L--|
---L-7-------7--7--L------|-------------------------|--------------------------|


  E  E  E  E  E  E  E  E     E  E  E  E  E  Q    E   
--------6--L--5--L--------|--0-----L--0--L--1----3--|
--------------------6--L--|-------------------------|
--3-----------------------|-------------------------|
--0--0-----0-----0-----L--|--2--2-----2-----2----L--|
--------------------------|-------------------------|
--------------------------|-------------------------|


  E  E  Q    E  E  S S S S    E  E  Q    E  E  Q     
-------------------------3-|--5----------------L----|
--3----------------3-5-6---|------------------------|
--------2-------L----------|------------------------|
--0--0-------0--0----------|--0--0-------0--0-------|
---------------------------|------------------------|
---------------------------|------------------------|


  E  E  Q    E  E  S S S S    E  E  Q    E  E  Q       E  E  Q    H         
-------------------------3-|--5----------------L----|----------------------|
--3----------------3-5-6---|------------------------|--3-------------------|
--------2-------L----------|------------------------|--2-------------------|
--0--0-------0--0----------|--0--0-------0--0-------|--0-------------------|
---------------------------|------------------------|----------------------|
---------------------------|------------------------|----------------------|


  W                  
-------------------||
--L----------------||
--L----------------||
--L----------------||
-------------------||
-------------------||




Duration Legend
---------------
W - whole
H - half
Q - quarter
E - 8th
S - 16th
. - note dotted


Tablature Legend
----------------
L - tied note
h - hammer on
p - pull off
S - shift slide
~ - vibrato
^ - brush up
Login or Register to remove this ad.

1 comment on Hyrule Field

Really good!

Really good!