Ads

Hidden Skill Training (Legend of Zelda: Twilight Princess) Bass/Guitar Tab

Submitted: Apr 24, 2012 by Jacob31593 (Last updated: Jun 01, 2012)

5
Average: 5 (4 votes)
Download | Listen
Game: Legend of Zelda: Twilight Princess
Composer(s): Koji Kondo, Asuka Ohta, Toru Minegishi
Style: 2 or more instruments, Alternate picking, Arrangement, Sweep picking, Transcription
Series: Legend of Zelda

AutoScroll: Slow | Medium | Fast

Hidden Skill Training from The Legend of Zelda: Twilight Princess
Composed by Koji Kondo, Asuka Ohta, and/or Toru Minegishi
Tabbed by Jacob31593
April 24th 2012

This is a cool song! but its pretty short :(

120BPM

Lead

              Q    Q    Q    Q                                 Q     E  E  Q.      E     E  E  H.             
E||-------|-----------------------|-------|-------|-------||--------------------------|----------------------|
B||-------|--10-------------------|-------|-------|-------||--------10----------------|----------------------|
G||-------|-----------------------|-------|-------|-------||*--------------9~---------|--------9~------------|
D||-------|-----------------------|-------|-------|-------||*-------------------------|--7-------------------|
A||-------|-----------------------|-------|-------|-------||--------------------------|----------------------|
E||-------|-----------------------|-------|-------|-------||--------------------------|----------------------|


  Q.     E    Q.      E       W                                                                                                  
-------------------------|----------------------|-------------------|-------------------|-------------------|-------------------|
-------------------------|----------------------|-------------------|-------------------|-------------------|-------------------|
-------------------------|--7g9~----------------|-------------------|-------------------|-------------------|-------------------|
---------7--7g9~------7--|----------------------|-------------------|-------------------|-------------------|-------------------|
-------------------------|----------------------|-------------------|-------------------|-------------------|-------------------|
-------------------------|----------------------|-------------------|-------------------|-------------------|-------------------|


  Q     E  E  Q.      E     E  E   H.               Q    E   E  Q.       E       W                    E.  S  E  S S H          
-------------------------|--8--------------------|--------------------------|----------------------|--------------------------|
-------10----------------|--------10~------------|--L-------10--8~----------|----------------------|--------------------------|
--------------9~---------|-----------------------|----------------------10--|--8g9~----------------|------7h-9------9~--------|
-------------------------|-----------------------|--------------------------|----------------------|--------------7-----------|
-------------------------|-----------------------|--------------------------|----------------------|--------------------------|
-------------------------|-----------------------|--------------------------|----------------------|--------------------------|


  W                                                                                                                     
-------------------|-------------------|-------------------|-------------------|-------------------|-------------------|
-------------------|-------------------|-------------------|-------------------|-------------------|-------------------|
--L----------------|-------------------|-------------------|-------------------|-------------------|-------------------|
-------------------|-------------------|-------------------|-------------------|-------------------|-------------------|
-------------------|-------------------|-------------------|-------------------|-------------------|-------------------|
-------------------|-------------------|-------------------|-------------------|-------------------|-------------------|


                                                                                                    3x
-------------------|-------------------|-------------------|-------------------|--------------------||
-------------------|-------------------|-------------------|-------------------|--------------------||
-------------------|-------------------|-------------------|-------------------|-------------------*||
-------------------|-------------------|-------------------|-------------------|-------------------*||
-------------------|-------------------|-------------------|-------------------|--------------------||
-------------------|-------------------|-------------------|-------------------|--------------------||


Bwoppy

E||-------|-------|-------|-------|-------||--------|-------|-------|-------|-------|-------|-------|-------|-------|-------|
B||-------|-------|-------|-------|-------||--------|-------|-------|-------|-------|-------|-------|-------|-------|-------|
G||-------|-------|-------|-------|-------||*-------|-------|-------|-------|-------|-------|-------|-------|-------|-------|
D||-------|-------|-------|-------|-------||*-------|-------|-------|-------|-------|-------|-------|-------|-------|-------|
A||-------|-------|-------|-------|-------||--------|-------|-------|-------|-------|-------|-------|-------|-------|-------|
E||-------|-------|-------|-------|-------||--------|-------|-------|-------|-------|-------|-------|-------|-------|-------|


                                                                                   E  E   E  E   E  E  Q      
-------|-------|-------|-------|-------|-------|-------|-------|-------|-------|--------------------7--8~----|
-------|-------|-------|-------|-------|-------|-------|-------|-------|-------|--10--8------8--10-----------|
-------|-------|-------|-------|-------|-------|-------|-------|-------|-------|---------10------------------|
-------|-------|-------|-------|-------|-------|-------|-------|-------|-------|-----------------------------|
-------|-------|-------|-------|-------|-------|-------|-------|-------|-------|-----------------------------|
-------|-------|-------|-------|-------|-------|-------|-------|-------|-------|-----------------------------|


   E  E   E  E  H            W                         3x
-------------7--8~--------|--L----------------|--------||
--10--8--10---------------|-------------------|--------||
--------------------------|-------------------|-------*||
--------------------------|-------------------|-------*||
--------------------------|-------------------|--------||
--------------------------|-------------------|--------||

High Rhythm

     S S S  S     Q    Q    Q    Q        Q     Q    Q    Q       Q    Q    Q    Q        Q     Q    Q    Q     
E||-----------|-----------------------|------------------------|----------------------|------------------------|
B||-----------|--10-------------------|------------------------|----------------------|------------------------|
G||------9-11-|-----------------------|------------------------|----------------------|--------------7---------|
D||-----------|--------7----9----9----|--10----10----9----9----|--7----7----9----9----|--10----10---------9----|
A||-----------|-----------------------|------------------------|----------------------|------------------------|
E||-----------|-----------------------|------------------------|----------------------|------------------------|


    Q    Q    Q    Q        Q     Q    Q    Q       Q    Q    Q    Q        Q     Q    Q    Q       Q    Q    Q    Q     
|-----------------------|------------------------|----------------------|------------------------|----------------------|
|-----------------------|------------------------|----------------------|------------------------|----------------------|
|*----------------------|------------------------|----------------------|--------------7---------|----------------------|
|*--7----7----9----9----|--10----10----9----9----|--7----7----9----9----|--10----10---------9----|--7----7----9----9----|
|-----------------------|------------------------|----------------------|------------------------|----------------------|
|-----------------------|------------------------|----------------------|------------------------|----------------------|


   Q     Q    Q    Q       Q    Q    Q    Q        Q     Q    Q    Q       Q    Q    Q    Q        Q     Q    Q    Q     
------------------------|----------------------|------------------------|----------------------|------------------------|
------------------------|----------------------|------------------------|----------------------|------------------------|
------------------------|----------------------|--------------7---------|----------------------|------------------------|
--10----10----9----9----|--7----7----9----9----|--10----10---------9----|--7----7----9----9----|--10----10----9----9----|
------------------------|----------------------|------------------------|----------------------|------------------------|
------------------------|----------------------|------------------------|----------------------|------------------------|


  Q    Q    Q    Q        Q     Q    Q    Q       Q    Q    Q    Q        Q     Q    Q    Q       Q    Q    Q    Q     
----------------------|------------------------|----------------------|------------------------|----------------------|
----------------------|------------------------|----------------------|------------------------|----------------------|
----------------------|--------------7---------|----------------------|------------------------|----------------------|
--7----7----9----9----|--10----10---------9----|--7----7----9----9----|--10----10----9----9----|--7----7----9----9----|
----------------------|------------------------|----------------------|------------------------|----------------------|
----------------------|------------------------|----------------------|------------------------|----------------------|


   Q     Q    Q    Q       Q    Q    Q    Q        Q     Q    Q    Q       Q    Q    Q    Q        Q     Q    Q    Q     
------------------------|----------------------|------------------------|----------------------|------------------------|
------------------------|----------------------|------------------------|----------------------|------------------------|
--------------7---------|----------------------|------------------------|----------------------|--------------7---------|
--10----10---------9----|--7----7----9----9----|--10----10----9----9----|--7----7----9----9----|--10----10---------9----|
------------------------|----------------------|------------------------|----------------------|------------------------|
------------------------|----------------------|------------------------|----------------------|------------------------|


  Q    Q    Q    Q        Q     Q    Q    Q       Q    Q    Q    Q        Q     Q    Q    Q     3x
----------------------|------------------------|----------------------|-------------------------||
----------------------|------------------------|----------------------|-------------------------||
----------------------|------------------------|----------------------|--------------7---------*||
--7----7----9----9----|--10----10----9----9----|--7----7----9----9----|--10----10---------9----*||
----------------------|------------------------|----------------------|-------------------------||
----------------------|------------------------|----------------------|-------------------------||


Low Rhythm

             Q    Q     Q     Q       Q    Q     E   E   Q       Q    Q     Q     Q       Q    Q    E   E  E   E   
E||-------|------------------------|--------------------------|------------------------|--------------------------|
B||-------|------------------------|--------------------------|------------------------|--------------------------|
G||-------|------------------------|--------------------------|------------------------|--------------------------|
D||-------|--7---------------------|--7----7------------------|------------------------|--7----7----9------9------|
A||-------|--7----7----10----10----|------------10------10----|--7----7----10----10----|---------------10-----10--|
E||-------|------------------------|----------------10---7----|------------------------|--------------------------|


    Q    Q     Q     Q       Q    Q     E   E   Q       Q    Q     Q     Q       Q    Q    E   E  E   E   
|-------------------------|--------------------------|------------------------|--------------------------|
|-------------------------|--------------------------|------------------------|--------------------------|
|*------------------------|--------------------------|------------------------|--------------------------|
|*------------------------|--7----7------------------|------------------------|--7----7----9------9------|
|---7----7----10----10----|------------10------10----|--7----7----10----10----|---------------10-----10--|
|-------------------------|----------------10---7----|------------------------|--------------------------|


  Q    Q     Q     Q       Q    Q     E   E   Q       Q    Q     Q     Q       Q    Q    E   E  E   E     Q    Q     Q     Q     
------------------------|--------------------------|------------------------|--------------------------|------------------------|
------------------------|--------------------------|------------------------|--------------------------|------------------------|
------------------------|--------------------------|------------------------|--------------------------|------------------------|
------------------------|--7----7------------------|------------------------|--7----7----9------9------|------------------------|
--7----7----10----10----|------------10------10----|--7----7----10----10----|---------------10-----10--|--7----7----10----10----|
------------------------|----------------10---7----|------------------------|--------------------------|------------------------|


  Q    Q     E   E   Q       Q    Q     Q     Q       Q    Q    E   E  E   E     Q    Q     Q     Q     
--------------------------|------------------------|--------------------------|------------------------|
--------------------------|------------------------|--------------------------|------------------------|
--------------------------|------------------------|--------------------------|------------------------|
--7----7------------------|------------------------|--7----7----9------9------|------------------------|
------------10------10----|--7----7----10----10----|---------------10-----10--|--7----7----10----10----|
----------------10---7----|------------------------|--------------------------|------------------------|


  Q    Q     E   E   Q       Q    Q     Q     Q       Q    Q    E   E  E   E     Q    Q     Q     Q     
--------------------------|------------------------|--------------------------|------------------------|
--------------------------|------------------------|--------------------------|------------------------|
--------------------------|------------------------|--------------------------|------------------------|
--7----7------------------|------------------------|--7----7----9------9------|------------------------|
------------10------10----|--7----7----10----10----|---------------10-----10--|--7----7----10----10----|
----------------10---7----|------------------------|--------------------------|------------------------|


  Q    Q     E   E   Q       Q    Q     Q     Q       Q    Q    E   E  E   E     Q    Q     Q     Q     
--------------------------|------------------------|--------------------------|------------------------|
--------------------------|------------------------|--------------------------|------------------------|
--------------------------|------------------------|--------------------------|------------------------|
--7----7------------------|------------------------|--7----7----9------9------|------------------------|
------------10------10----|--7----7----10----10----|---------------10-----10--|--7----7----10----10----|
----------------10---7----|------------------------|--------------------------|------------------------|


  Q    Q     E   E   Q       Q    Q     Q     Q       Q    Q    E   E  E   E   3x
--------------------------|------------------------|---------------------------||
--------------------------|------------------------|---------------------------||
--------------------------|------------------------|--------------------------*||
--7----7------------------|------------------------|--7----7----9------9------*||
------------10------10----|--7----7----10----10----|---------------10-----10---||
----------------10---7----|------------------------|---------------------------||


Bass

             Q    Q    Q    Q               Q    Q    Q    Q                 Q    Q    Q    Q               Q    Q    Q    Q     
G||-------|----------------------|-------|----------------------|-------||-----------------------|-------|----------------------|
D||-------|----------------------|-------|----------------------|-------||*----------------------|-------|----------------------|
A||-------|----------------------|-------|----------------------|-------||-----------------------|-------|----------------------|
E||-------|--5-------------------|-------|--5-------------------|-------||*--5-------------------|-------|--5-------------------|
B||-------|----------------------|-------|----------------------|-------||-----------------------|-------|----------------------|


          Q    Q    Q    Q               Q    Q    Q    Q               Q    Q    Q    Q               Q    Q    Q    Q     
-------|----------------------|-------|----------------------|-------|----------------------|-------|----------------------|
-------|----------------------|-------|----------------------|-------|----------------------|-------|----------------------|
-------|----------------------|-------|----------------------|-------|----------------------|-------|----------------------|
-------|--1-------------------|-------|--1-------------------|-------|--5-------------------|-------|--5-------------------|
-------|----------------------|-------|----------------------|-------|----------------------|-------|----------------------|


          Q    Q    Q    Q               Q    Q    Q    Q               Q    Q    Q    Q               Q    Q    Q    Q     
-------|----------------------|-------|----------------------|-------|----------------------|-------|----------------------|
-------|----------------------|-------|----------------------|-------|----------------------|-------|----------------------|
-------|----------------------|-------|----------------------|-------|----------------------|-------|----------------------|
-------|--1-------------------|-------|--1-------------------|-------|--5-------------------|-------|--5-------------------|
-------|----------------------|-------|----------------------|-------|----------------------|-------|----------------------|


          Q    Q    Q    Q               Q    Q    Q    Q             3x
-------|----------------------|-------|----------------------|--------||
-------|----------------------|-------|----------------------|-------*||
-------|----------------------|-------|----------------------|--------||
-------|--1-------------------|-------|--1-------------------|-------*||
-------|----------------------|-------|----------------------|--------||




Duration Legend
---------------
W - whole
H - half
Q - quarter
E - 8th
S - 16th
. - note dotted
|-n-|  - n-tuplets


Tablature Legend
----------------
L - tied note
g - grace note
h - hammer on
p - pull off
~ - vibrato
Login or Register to remove this ad.