Ads

Song of Snow's Restoration (Legend of Zelda: Spirit Tracks) Guitar Tab

Submitted: Aug 20, 2011 by Cherucha

0
Download | Listen
Game: Legend of Zelda: Spirit Tracks
Composer(s): Koji Kondo, Asuka Ohta, Toru Minegishi, Manaka Tominaga
Style: 2 or more instruments, Transcription
Series: Legend of Zelda

AutoScroll: Slow | Medium | Fast
Lokomo Duet with Steem                             
~Loz Spirit Tracks~
Composed by: Toru Minegishi, Manaka Tominaga, Asuka Ota, Koji Kondo

Spirit Flute
E|-0---0-2---------
B|---3-------------
G|----------------- x4
D|-----------------
A|-----------------
E|-----------------

Lokomo Steem's Part
E|---2------2-5-4-0----
B|-0---2-3-------------
G|---------------------
D|---------------------
A|---------------------
E|---------------------

E|---2-----2-5-7-5-5-2-
B|-0---2-3-------------
G|---------------------
D|---------------------
A|---------------------
E|---------------------
Login or Register to remove this ad.