Ads

Skyloft (Legend of Zelda: Skyward Sword) Mandolin Tab

Submitted: Aug 15, 2015 by Qualbert

0
Download | Listen
Game: Legend of Zelda: Skyward Sword
Composer(s): Koji Kondo, Hajime Wakai, Mahito Yokota, Shiho Fujii, Takeshi Hama
Style: Transcription
Series: Legend of Zelda

AutoScroll: Slow | Medium | Fast
-------------------------------------------------------------------------------
		 Skyloft – The Legend of Zelda: Skyward Sword
-------------------------------------------------------------------------------
Composed by: Hajime Wakai
Tabbed by: Qualbert 14/8/2015
E-mail: [email protected]

Tuning: GDAE (Standard)

E|---------------------------------|
A|---0-5-0---0-5-0---0-5-0---0-5-0-|
D|-0-------0-------0-------0-------|
G|---------------------------------|

E|---------------------------------------------------------------------------|
A|-5-4-0------------------0-2-5-4-0---------0-----------0-2-0----------------|
D|---------5-4-5---2-4-5------------4---4-5---0-0---4-5-------4-0------------|
G|----------------------------------------------------------------2----------|

E|-----------------------|
A|-----0-5-0-4-0-2-0-4-0-|
D|-0-4-------------------|
G|-----------------------|

E|------------------------------------------------------------------------------|
A|-5-4-0------------------0-2-5-4-0---------0-----------0-2-5-4-0---0-----------|
D|---------5-4-5---2-4-5------------4---4-5---0-0---4-5-----------4---5-4-0-2-0-|
G|------------------------------------------------------------------------------|

E|---------------------------------|
A|---0-5-0---0-5-0---0-5-0---0-5-0-|
D|-0-------0-------0-------0-------|
G|---------------------------------|

E|--------------------------------------------------------------------------|
A|---------0-----------------0-5-0-------------0-4-2-0----------------------|
D|-0-2-4-5---5-4-2---0-2-4-5-------5-4-2-0-4-------------5-4-2-0------------|
G|--------------------------------------------------------------------------|

E|--------------------------------------------------------------------------|
A|---------0-----------------0-2-3-2-0-------------0-------0-5-0------------|
D|-0-2-4-5---5-4-2---0-2-4-5-----------5---5-4-2-4---2-0-4------------------|
G|--------------------------------------------------------------------------|

E|---------------------------------------------------------------------------|
A|---------------0-------0-5-0-----------------------------------------------|
D|-2-0-4-5-4-2-4---2-0-4-------5-4-5-2-0-------------------------------------|
G|---------------------------------------------------------------------------|

E|---------------------------------|
A|---0-5-0---0-5-0---0-5-0---0-5-0-|
D|-0-------0-------0-------0-------|
G|---------------------------------|


Login or Register to remove this ad.