Ads

Skyloft (Legend of Zelda: Skyward Sword) Guitar Tab

Submitted: Apr 11, 2014 by Alfa_ice

4.8
Average: 4.8 (5 votes)
Download | Listen
Game: Legend of Zelda: Skyward Sword
Composer(s): Koji Kondo, Hajime Wakai, Mahito Yokota, Shiho Fujii, Takeshi Hama
Style: Arrangement, Fingerstyle
Series: Legend of Zelda

AutoScroll: Slow | Medium | Fast
                                    Skyloft                                     

The Legend of Zelda: Skyward Sword
Tabbed by: Isac Saleh

Tuning: DADGBE (drop D)


                                v                        
     E  E  E  E  E  E  E  E     E  E  E  E  E  E  E  E   
E||--------------------------|--0-----------------------|
B||--3-----3-----3-----3-----|--3-----3-----3-----3-----|
G||-----2-----2-----2-----2--|-----2-----2-----2-----2--|
D||--0-----------0-----------|--0-----------0-----------|
A||--------------------------|-----------------------0--|
D||--------------------------|--0-----------0-----------|


  ^                                                    
  E  E  Q    E  E  E  S S    E  E  Q    E  E  E  S  S  
--------------------------|-------------------3-------|
--3--2-------------2------|-----0--3-------0----------|
--2-----2-------2-----0---|--0------------------------|
-------------0----------4-|--0----------0--------2h-4-|
--------------------------|---------------------------|
--0-----------------------|--0------------------------|


  E  E  E  E  E  E  E  E     E  E  E  E  E  E  E  S S  
--------0-----------------|--------------------0------|
-----2--------0--3--2-----|--------3------------------|
--0--------2-----------2--|-----2-----2-----2-------0-|
--0-----------0-----------|--4-----------4--------4---|
-----------------------0--|---------------------------|
--0-----------------------|--0-----------4------------|


  E  E  E  E  E  Q    S S    E  E  E  E  Q    E  E     E  E  E  E  E  E  E  E   
--------------------------|--------0----------------|-----------3--------------|
--------5--7--------------|-----3-----0-------------|--------3-----3-----------|
-----7-----------0------0-|--2-----------2----------|-----4--------------4-----|
--7-------------------4---|--4-----------4----4--0--|-----------------2-----2--|
-----------5--5-----------|--------------2----------|--0-----------------------|
--5-----------------------|--4----------------------|-----------------------2--|


                          ^                                                    
  Q    E  E  Q    Q       E  E  Q    E  E  E  S S    E  E  Q    E  E  E  S  S  
-----------------------|--------------------------|-------------------3-------|
--3----0-----2----3----|--3--2-------------2------|-----0--3-------0----------|
-----------------------|--2-----2-------2-----0---|--0------------------------|
--2--------------------|-------------0----------4-|--0----------0--------2h-4-|
--0----------0---------|--------------------------|---------------------------|
----------2------------|--0-----------------------|--0------------------------|


  E  E  E  E  E  E  E  E     E  E  E  E  E  E  E  S S  
--------0-----------------|--------------------0------|
-----2--------0--3--2-----|--------3------------------|
--0--------2-----------2--|-----2-----2-----2-------0-|
--0-----------0-----------|--4-----------4--------4---|
-----------------------0--|---------------------------|
--0-----------------------|--0-----------4------------|


  E  E  E  E  E  Q    S S    E  E  E  E  E   E  E  S S  
--------------------------|--------0-------------------|
--------5--7--L-----------|-----3-----0--3p--2---------|
-----7-----------0------0-|--2------------------2----0-|
--7-------------------4---|--4---------------------4---|
-----------5--5-----------|--------------2-------------|
--5-----------------------|--4-------------------------|


  ^                                                       
  E  E  E  E  E  E  E  S  S    E  E  E  E  E  S  S  Q     
-----0--3--7--8--7--3--3p-2-|----------------------------|
--1-----L-------------------|--3--------------3S-4S-5----|
--2-----L-------------------|--2--------2----------------|
----------------------------|--------2-------------------|
--3-----L-------------------|-----2--------0-------------|
----------------------------|--2-------------------------|


                             ^                         
  E  E  E  E  E  E  E  E     E  E  E  E  E  E  E  S S  
--2-----------------------|-----------0--2-----3----0-|
--3-----3-----------2-----|--3-----3--------3-----3---|
-----2-----2-----2-----2--|-----2---------------------|
--------------0-----------|--0------------------------|
-----------------------0--|-----------------0---------|
--0-----------------------|--0------------------------|


  E  E  E  E  E  E  E  S  S    E  E  E  E  E  E  E  S S  
--2--3--5-----2--------3p-2-|--0-----------3----------0-|
-----------3--------3-------|-----------3--------3--3---|
--------2-------------------|--------0------------------|
--0--------------0----------|-----0-----------0---------|
----------------------------|---------------------------|
----------------------------|--5------------------------|


  E  E  E  E  E  E  E   E     E  E  E  S  S E  E  Q     
--2--3--5-----2--------10--|--5------------------------|
-----------3--------3------|-----------8S-7-5----------|
--------2------------------|----------------------7----|
--0--------------0---------|--------5------------------|
---------------------------|-----5-------------5-------|
---------------------------|--5------------------------|


  E  E  E  E  E  E  E  S  S     E  E  E  E  E  E  Q     
-----------------------------|--------5-----9-----7----|
--7-----------7--------5h-6h-|--7----------------------|
--------6--7--------6--------|-----------7--------7----|
-----7-----------0-----------|--------5----------------|
-----------------------------|-----5-----------5-------|
--0--------------------------|--0----------------------|


  E  E  E  E  E  E  E  E     E  E  E  E  E  E  E  S S  
--5-----------2-----------|---------------------------|
--------2--3--------3-----|--------------------7----5-|
-----2-----------------2--|-----------7-----7-----7---|
-----------------0--------|-----0--7------------------|
--------------------------|-----------0---------------|
--0-----------------------|--0-----------0------------|


  E  E  E  S  S E  E  E  S S    E  E  E  E  E  S  S E  E   
--------5--------------------|--------5--7--8--7p-5-------|
--7--8-----8S-7-5----------5-|--7--8--------8-------8-----|
-------------------------7---|-----------7----------------|
--------7-------------7------|-----0--7-------------------|
-----5-------------5---------|--0----------------------0--|
--5--------------------------|----------------------------|


  E  S  S E  E  E  E  E  E     E  E  E  E  E  E  E  E   
--3--2p-0-2--5--0--------2--|--5--------L--0--------2--|
----------------------3-----|--------------------3-----|
----------0-----------2-----|--------------0-----------|
-----0-------------2--------|-----------7-----4--0-----|
----------------------------|-----5--9-----------------|
--2-------------4-----------|--5--------L--------------|


                               ^          ^             
  E  S  S E  E  E  E  E  E     Q.      E  E  S S E  E   
--3--2p-0-2--5--0--------2--|--5------10--5---------0--|
----------------------3-----|----------------8-7-8-----|
----------0-----------2-----|--4----------5------------|
-----0-------------2--------|--------------------------|
----------------------------|--------------------------|
--2-------------4--------0--|--5----------7------------|


  ^                          ^                        
  E  E  E  E  E  E  E  E     E  E  E  E  E  E  E  E   
--------------------------|--7-----------9-----------|
--------------------------|--8-----------------------|
--7-----------7-----------|--7-----------7-----------|
-----0--7--0-----0--7--0--|-----0--7--0-----0--7--0--|
--------------------------|--------------------------|
--0-----------------------|--0-----------------------|


  v                                                                        
  E  E  E  E  E  E  E  E     E  E  E  E  E  E  E  E     W                  
--0-----------------------|--------------------------|-------------------||
--3-----3-----3-----3-----|--3-----3-----3-----3-----|--3----------------||
--2--2-----2-----2-----2--|-----2-----2-----2-----2--|--2----------------||
--0-----------------------|--------------------------|--0----------------||
-----------0--------------|-----------0--------------|-------------------||
--0-----------0-----------|--0-----------0-----------|--0----------------||




Duration Legend
---------------
W - whole
H - half
Q - quarter
E - 8th
S - 16th
T - 32nd
X - 64th
. - note dotted
|-n-|  - n-tuplets


Tablature Legend
----------------
L - tied note
x - dead note
g - grace note
(n) - ghost note
> - accentuded note
NH - natural harmonic
AH - artificial harmonic
TH - tapped harmonic
SH - semi harmonic
PH - pitch harmonic
h - hammer on
p - pull off
b - bend
br - bendRelease
pb - preBend
pbr - preBendRelease
brb - bendReleaseBend
\n/ - tremolo bar dip
\n - tremolo bar dive
-/n - tremolo bar Release up
/n\ - tremolo bar inverted dip
/n - tremolo bar return
-\n - tremolo bar Release down
S - shift slide
s - legato slide
/ -  slide into from below or out of upwards
\ -  slide into from above or out of downwards
~ - vibrato
W - wide vibrato
tr - trill
TP - tremolo picking
T - tapping
S - slap
P - pop
< - fade in
^ - brush up
v - brush down
Login or Register to remove this ad.