Skyloft (Legend of Zelda: Skyward Sword) Ukulele Tab

Submitted: Jun 16, 2012 by Aleph

0
Download | Listen
Game: Legend of Zelda: Skyward Sword
Composer(s): Koji Kondo, Hajime Wakai, Mahito Yokota, Shiho Fujii, Takeshi Hama
Style: Transcription
Series: Legend of Zelda

AutoScroll: Slow | Medium | Fast
Skyloft
The Legend of Zelda: Skyward Sword
Tabbed by Aleph for ukulele
6/15/2012


A|------------------------------------------------------------------------------|
E|--9/10--9------------------------------------10--9----------------------------|
C|-----------9----7--6--7----4--6--7----9--11---------9--6----6--7--9---2--2----|
G|------------------------------------------------------------------------------|

A|--------------------------0---------------------------------------------------|
E|--------------------------0---------------------------------------------------|
C|--6--7--9---11--9---6/2---1---------------------------------------------------|
G|--------------------------2---------------------------------------------------|

A|------------------------------------------------------------------------------|
E|--9/10--9------------------------------------10--9----------------------------|
C|-----------9----7--6--7----4--6--7----9--11---------9--6----6--7--9---2--2----|
G|------------------------------------------------------------------------------|

A|------------------------------------------------------------------------------|
E|----------------10--9---------------------------2~----------------------------|
C|--6--7--9---11---------9--6--6/9---7--6--2---4--2~----------------------------|
G|------------------------------------------------2~----------------------------|
Login or Register to remove this ad.