Ads

Crimson Loftwing (Legend of Zelda: Skyward Sword) Guitar Tab

Submitted: Jul 04, 2021 by FocusShallNotFail (Last updated: Jul 20, 2021)

0
Download | No audio :(
Game: Legend of Zelda: Skyward Sword
Composer(s): Koji Kondo, Hajime Wakai, Mahito Yokota, Shiho Fujii, Takeshi Hama
Style: Arrangement, Fingerstyle
Series: Legend of Zelda

Click here for a video example.

AutoScroll: Slow | Medium | Fast
 
Capo 4th fret

E|-------------0-------0---|-----0-------0-------0---|-------------1-------1---|-----1-------1-------1---|
B|---------2-------2-------|-2-------2-------2-------|---------3-------3-------|-3-------3-------3-------|
G|-------------------------|-------------------------|-------------------------|-------------------------|
D|-----2-------------------|-----2-------------------|-----3-------------------|-----3-------------------|
A|-0-----------------------|-0-----------------------|-0-----------------------|-0-----------------------|
D|-------------------------|-------------------------|-------------------------|-------------------------|


E|-5------------4-------|-2-------------|---------------|-4-------2---------|---------0-----|
B|---------2--------5---|---------2-----|---------3-----|---------------3---|-2---3---2-----|
G|----------------------|---------------|---------------|-------------------|---------------|
D|-----2----------------|-----2---------|-----4---------|-----4-------------|-----2---------|
A|-0--------------------|-0-------------|-0-------------|-0-----------------|-0-------------|
D|----------------------|---------------|---------------|-------------------|---------------|


E|---------------|-------------------------|----------------|-0--------------------|
B|---------2-----|-------------------------|------------2---|--------------3---2---|
G|---------------|---------2-------2-------|------2---------|---------2------------|
D|-----2---------|-----2-------2-------2---|-2--------------|-----0----------------|
A|-0-------------|-0-----------------------|-0--------------|----------------------|
D|---------------|-------------------------|----------------|-0--------------------|


E|---------------|---------------|-------------------|-------------0-------0---|-----0-------0-------0---|
B|-3-------------|---------------|-3-------2---------|---------0-------0-------|-0-------0-------0-------|
G|---------2-----|---------2-----|---------2-----2---|-1---2-------------------|-------------------------|
D|-----0---------|-----0---------|-----0-------------|-----2-------------------|-----2-------------------|
A|---------------|-2-------------|-2-----------------|-------------------------|-------------------------|
D|-0-------------|---------------|-------------------|-2-----------------------|-2-----------------------|


E|---------4---0---4---0---|-4---0---4---0---4---0---|-5--------------------|------------|
B|-------------------------|-------------------------|--------------9---5---|-7----------|
G|-------------------------|-------------------------|---------6------------|-------6----|
D|-----2-------------------|-2-----------------------|-----7----------------|-7----------|
A|-------------------------|---------2---------------|-5--------------------|-5----------|
D|-2-----------------------|-----------------2-------|----------------------|------------|


E|------------|-4-------5-----7---|-7--------------------|------------|--------|-----------4----|
B|------------|---------5---------|--------------5---4---|-5----------|--------|-5----7---------|
G|-4----------|-----4-------------|---------4------------|-------4----|-2------|-6--------------|
D|-2-----2----|-2-----------------|-----6----------------|-6----------|-4------|----------------|
A|------------|-------------------|-4--------------------|-4----------|--------|----------------|
D|------------|-------------------|----------------------|------------|--------|----------------|


E|-5--------------------|----------------------|-5-------------|-10---9-----5---|-7------|
B|--------------3---2---|-3------------3---2---|-3-------------|-7----5---------|--------|
G|---------2------------|-2-------2------------|---------4-----|------------6---|-7------|
D|-----4----------------|-----4----------------|-----5---------|----------------|--------|
A|-2--------------------|-2--------------------|---------------|----------------|-7------|
D|----------------------|----------------------|-5-------------|-5--------------|--------|


E|---------------|-7------|-----------0----|-------------------------|-------------------------|
B|---------------|-5------|-0--------------|-------------2-------2---|-----2-------2-------2---|
G|-------6---7---|--------|----------------|---------2-------2-------|-2-------2-------2-------|
D|---------------|--------|------6---------|-----2-------------------|-------------------------|
A|-7-------------|-7------|-7--------------|-0-----------------------|-0-----------------------|
D|---------------|--------|----------------|-------------------------|-------------------------|


E|----------------------|-------------------------|--------|----------------|--------|
B|----------------------|-------------------------|--------|----------------|-3------|
G|----------2-------2---|-----2-------2-------2---|-2------|------1----2----|--------|
D|------4-------4-------|-4-------4-------4-------|-2------|----------------|-3------|
A|-0--------------------|-0-----------------------|-0------|-0--------------|-0------|
D|----------------------|-------------------------|--------|----------------|--------|


E|----------------|-0------|
B|------2----3----|-2------|
G|----------------|--------|
D|----------------|-2------|
A|-0--------------|-0------|
D|----------------|--------|



Login or Register to remove this ad.