Ads

Ballad of the Goddess (Legend of Zelda: Skyward Sword) Guitar Tab

Submitted: Jul 31, 2013 by Alfa_ice

5
Average: 5 (9 votes)
Download | Listen
Game: Legend of Zelda: Skyward Sword
Composer(s): Koji Kondo, Hajime Wakai, Mahito Yokota, Shiho Fujii, Takeshi Hama
Style: Arrangement, Fingerstyle, Natural harmonics
Series: Legend of Zelda

AutoScroll: Slow | Medium | Fast
                            Ballad of the Goddess                               


The Legend of Zelda: Skyward Sword
Tabbed by: Alfa_ice

Difficulty: Medium

Standard tuning: EADGBE
(Capo 5)



     ^            ^               ^             ^              
     H.           E   E  H        Q    H        Q    H         
E||-------------------------------3----5----------------------|
B||---------------0h--1--3--------0-------------3----0--------|
G||--2------------0-----------------------------2-------------|
D||--2------------------------------------------0-------------|
A||--0------------2---------------3---------------------------|
E||-----------------------------------------------------------|


  ^            ^             ^              ^              
  H.           Q    H        E  E  H        Q    H         
----------------------------------------------------------|
---------------3----0-----------------------3----0--------|
--2--------------------------2--0--2----------------------|
--0------------0-------------0--------------0-------------|
----------------------------------------------------------|
--1------------3-------------1--------------3-------------|


  ^            ^               ^             ^              
  H.           E   E  H        Q    H        Q    H         
-------------------------------3----5----------------------|
---------------0h--1--3--------0-------------3----0--------|
--2------------0-----------------------------2-------------|
--2------------------------------------------0-------------|
--0------------2---------------3---------------------------|
-----------------------------------------------------------|


  ^            ^             ^              ^              
  H.           Q    H        E  E  H        Q    H         
----------------------------------------------------------|
---------------3----0-----------------------3----0--------|
--2--------------------------2--0--2----------------------|
--0------------0-------------0--------------0-------------|
----------------------------------------------------------|
--1------------3-------------1--------------3-------------|


  ^               ^               ^               ^                
  Q.     E  E  E  Q.     E  E  E  Q.     E  E  E  Q.     E  E  E   
------------------------------------------------------------------|
------------------------------------------------------------------|
--2---------2-----2---------2-----2---------2-----2---------2-----|
--2------2-----2--2------2-----2--2------2-----2--2------2-----2--|
--0---------------0---------------0---------------0---------------|
------------------------------------------------------------------|


  ^               ^               ^               ^             
  Q.     E  E  E  Q.     E  E  E  Q.     E  E  E  H.            
--5------0--------5------0--------5------0--------5------------|
---------------------------------------------------------------|
--2---------2-----2---------2-----2---------2-----2------------|
--2------2-----2--2------2-----2--2------2-----2--2------------|
--0---------------0---------------0---------------0------------|
---------------------------------------------------------------|


  ^                ^                  ^                ^                 
  Q    E  E  E  E  E   E  E  E  E  E  Q    E  E  E  E  Q    E  E  E  E   
-------------0------------------------3----5-----L----------------------|
-------------------0h--1--3-----------0----------------3----0-----------|
--2----------2-----0---------0--------0-------------0--2-------2--------|
--2-------2-----2--0------------0----------------0-----0----------0-----|
--0----0-----------2---------------2--3-------3----------------------2--|
------------------------------------------------------------------------|


  ^                 ^                ^                  ^                 
  Q    E  E  E   E  Q    E  E  E  E  E  E  E  E  E   E  Q    E  E  E  E   
-------------------------------------------------------------------------|
--------------------3----0------------------------------3----0-----------|
-------2--0--2p--0----------2-----------------0--2p--0----------2--------|
--0----L-----3------0----------0-----0-----------3------0----------0-----|
--0----L-----------------2--------2--0-----0-----------------2--------2--|
--1-------1---------3----------------1--3-----1---------3----------------|


  ^                ^                  ^                ^                 
  Q    E  E  E  E  E   E  E  E  E  E  Q    E  E  E  E  Q    E  E  E  E   
-------------0------------------------3----5----------------------------|
-------------------0h--1--3-----------0----------------3----0-----------|
--2----------2-----0---------0--------0-------------0--2-------2--------|
--2-------2-----2--0------------0----------------0-----0----------0-----|
--0----0-----------2---------------2--3-------3----------------------2--|
------------------------------------------------------------------------|


  ^                 ^                ^                  ^                 
  Q    E  E  E   E  Q    E  E  E  E  E  E  E  E  E   E  Q    E  E  E  E   
-------------------------------------------------------------------------|
--------------------3----0------------------------------3----0-----------|
-------2--0--2p--0----------2-----------------0--2p--0----------2--------|
--0----L-----3------0----------0-----0-----L-----3------0----------0-----|
--0----L-----------------2--------2--0-----0-----------------2--------2--|
--1-------1---------3----------------1--3-----1---------3----------------|


  ^                ^                 ^                ^                 
  Q    E  E  E  E  E  E  E  E  E  E  Q    E  E  E  E  Q    E  E  E  E   
--0----------------0---------------------------------------------------|
--1-------------1--0--3--1-----------1----0-----------3----------0-----|
--0----------0-----0--------0--------0-------------2--0-------0--------|
--2-------2--------------------0----------------0-----0----0-----------|
--3----3-----------2--------------2--0-------0----------------------2--|
------------------------------------------------------3----------------|


                   ^                                                
  Q    E  E  E  E  Q    E  E  Q    Q    E  E  Q    Q    E  E  Q     
-------------------------------------------------------------------|
------------------------0------------------------------------------|
--0----------2--L--2--------------------------0--------------------|
--0----------------0----------4----2-------4-------4----2-----0----|
----------2------------------------------------------------2-------|
--0----0-----------2-------2-------0----0----------2----L-----L----|


  ^                ^                 ^                ^                 
  Q    E  E  E  E  E  E  E  E  E  E  Q    E  E  E  E  Q    E  E  E  E   
--0----------------0---------------------------------------------------|
--1-------------1--0--3--1-----------1----0-----------3----------0-----|
--0----------0-----0--------0--------0-------------2--0-------0--------|
--2-------2--------------------0----------------0-----0----0-----------|
--3----3-----------2--------------2--0-------0----------------------2--|
------------------------------------------------------3----------------|


                   ^                ^                   ^               
  Q    E  E  E  E  Q    E  E  E  E  Q    E  E  E   S  S Q    E  Q.      
-----------------------------------------------------------------------|
------------------------0---------------------------------------L------|
--0----------2--L--2----------------2-------L--2h--4p-2-1-------L------|
--0----------------0----------4--L--2-------------------2-------L------|
----------2----------------------L----------2-----------2----2---------|
--0----0-----------2-------2--------0----0----------------------0------|


     NH            
     H.            
--<>12------------|
------------------|
------------------|
------------------|
------------------|
-----L------------|


  ^                                   ^                ^                 
  Q    E  E  E  E  E   E  E  E  E  E  Q    E  E  E  E  Q    E  E  E  E   
-------------0------------------------3----5----------------------------|
-------------------0h--1--3-----------0----------------3----0-----------|
--2----------2-----0---------0--------0-------------0--2-------2--------|
--2-------2-----2--0------------0----------------0-----0----------0-----|
--0----0-----------2---------------2--3-------3----------------------2--|
------------------------------------------------------------------------|


  ^                 ^                ^                  ^                 
  Q    E  E  E   E  Q    E  E  E  E  E  E  E  E  E   E  Q    E  E  E  E   
-------------------------------------------------------------------------|
--------------------3----0------------------------------3----0-----------|
-------2--0--2p--0----------2-----------------0--2p--0----------2--------|
--0----------3------0----------0-----0-----------3------0----------0-----|
--0----------------------2--------2--0-----0-----------------2--------2--|
--1-------1---------3----------------1--3-----1---------3----------------|


  ^                ^                  ^                ^                 
  Q    E  E  E  E  E   E  E  E  E  E  Q    E  E  E  E  Q    E  E  E  E   
-------------0------------------------3----5----------------------------|
-------------------0h--1--3-----------0----------------3----0-----------|
--2----------2-----0---------0--------0-------------0--2-------2--------|
--2-------2-----2--0------------0----------------0-----0----------0-----|
--0----0-----------2---------------2--3-------3----------------------2--|
------------------------------------------------------------------------|


  ^                 ^                ^                  ^                 
  Q    E  E  E   E  Q    E  E  E  E  E  E  E  E  E   E  Q    E  E  E  E   
-------------------------------------------------------------------------|
--------------------3----0------------------------------3----0-----------|
-------2--0--2p--0----------2-----------------0--2p--0----------2--------|
--0----------3------0----------0-----0-----------3------0----------0-----|
--0----------------------2--------2--0-----0-----------------2--------2--|
--1-------1---------3----------------1--3-----1---------3----------------|


  Q.     E  E  E  Q.     E  E  E  Q.     E  E  E  Q.     E  E  E   
------------------------------------------------------------------|
------------------------------------------------------------------|
--2---------2-----2---------2-----2---------2-----2---------2-----|
--2------2-----2--2------2-----2--2------2-----2--2------2-----2--|
--0---------------0---------------0---------------0---------------|
------------------------------------------------------------------|


  Q.     E  E  E  Q.     E  E  E  Q.     E  E  E  H.            
--0---------------0---------------0---------------0------------|
---------------------------------------------------------------|
--2---------2-----2---------2-----2---------2-----2------------|
--2------2-----2--2------2-----2--2------2-----2--2------------|
--0---------------0---------------0---------------0------------|
---------------------------------------------------------------|


  W                  
--L----------------||
-------------------||
--L----------------||
--L----------------||
--L----------------||
-------------------||




Duration Legend
---------------
W - whole
H - half
Q - quarter
E - 8th
S - 16th
. - note dotted



Tablature Legend
----------------
L - tied note
NH - natural harmonic
h - hammer on
p - pull off
^ - brush up
Login or Register to remove this ad.

2 comments on Ballad of the Goddess

wow

5

Impressive *_*
It's a lonlonjp-quality tab ^^
Many Bravo sir Alfa_ice !

Why thank you diralark, it

Why thank you diralark, it was a pleasure making the arrangement aswell :)