Ads

Tarm Ruins (Legend of Zelda: Oracle of Seasons) Guitar Tab

Submitted: Oct 22, 2014 by toadliy (Last updated: Oct 22, 2014)

5
Average: 5 (1 vote)
Download | Listen
Game: Legend of Zelda: Oracle of Seasons
Composer(s): M-Adachi, Kyopi
Style: Arrangement, Fingerstyle, Natural harmonics
Series: Legend of Zelda

AutoScroll: Slow | Medium | Fast
Tarm Ruins
The Legend of Zelda: Oracle of Seasons
Composed by Minako Adachi and Kiyohiro Sada
Tabbed by toadliy
10/19/14

Time signature: 4/4
BPM: 112


  E E E E E E E E   E E E E E E E E
|-----------------|-----------------|
|-----------------|-----------------|
|-----------------|-----------------|
|-----0-2-----0-2-|-----0-2-----0-2-|
|-0-2-----0-2-----|-0-2-----0-2-----|
|-----------------|-----------------|


    H       Q   E E   Q   Q   Q   E.   S   H       Q   Q
||--3-------2---3-2-|-0------------------|-----------------|
||o-----------------|------------------0-|-1-------0---3---|
||------------------|-----2---2---2------|-----------------|
||------0-2-----0-2-|-----0-2-----0--2---|-----0-2-----0-2-|
||o-0-2-----0-2-----|-0-2-----0-2--------|-0-2-----0-2-----|
||------------------|--------------------|-----------------|
    E E E E E E E E   E E E E E E E  E     E E E E E E E E


  Q   E E Q   Q     H..             E
|-----------------|-----------------0-|
|-1---0---0-------|---------------0-0-|
|-------2-----0---|-2-----------2-----|
|-----0-2-----0-2-|---------0-3-------|
|-0-2-----0-2-----|-----0-2-----------|
|-----------------|-1---------------0-|
  E E E E E E E E   E   E E E E E E E


  H..             S S   Q.     S S Q.     S S   W
|-0---------------0h5p|=0------0h5p0------0h5p|=0-------------0-|
|-0-------------0-----|-----------------0-----|-------------0---|
|-------------2-------|---------------2-------|-----------2-----|
|---------0-3---------|--------0---3----------|-------0-3-------|
|-----0-2-------------|----0-2----------------|---0-2-----------|
|-1-------------------|-0---------------------|-0---------------|
  E   E E E E E E E     E  E E E   E  E E E     E E E E E E E E


  Q   Q   Q   Q     H        +E  E E E   Q   Q   Q   Q
|-8---7---5-------|----------------5-7-|-8---7---5-------|
|-------------8---|-7--------(7)-8-----|-------------8---|
|-----------------|--------------9-----|-----------------|
|---7---9---7---9-|---7---10--7--------|---7---9---7---9-|
|-7---8---7---8---|-7---8--------------|-7---8---7---8---|
|-----------------|--------------------|-----------------|
  E E E E E E E E   E E E  E  E  E E E   E E E E E E E E


  H        +E  E E E     H          H           Q   Q   Q   Q
|------------------5-|------------<12>-------|-10---5---1-------|
|-7--------(7)-7-8---|-<12>------------------|--------------3---|
|--------------9-----|----------0----------0-|------------------|
|---7---10--7--------|--------2----------2---|--------3-------3-|
|-7---8--------------|------2----------2-----|----0-3-----0-3---|
|--------------------|-----------------------|------------------|
  E E E  E  E  E E E     E  E E E   E  E E E    E E E E E E E E


          |-3-|             |-3--|           |-3--|
  +Q.     S S S Q.          S  S S    Q.     S  S S  Q   E E
|-----------0------------------0-5-|--7------5--7-5-----------||
|-(3)-----3-----0-----------0------|-----------------6---5-3-o||
|-------------2-------------2------|--------------------------||
|---------2-------------2----------|--------------------------||
|-------2-----------3--------------|---------0-------------0-o||
|--0--3---------0--(0)-(0)-(0)-----|-(0)--1-(1)-----(1)--1----||
   E  E E E     E   E   E   E        +Q   E  E      +Q   E E
Login or Register to remove this ad.