Inside the Houses (Legend of Zelda: Oracle of Seasons) Guitar Tab

Submitted: May 23, 2017 by soundsandstuff (Last updated: May 24, 2017)

0
Download | Listen
Game: Legend of Zelda: Oracle of Seasons
Composer(s): M-Adachi, Kyopi
Style: 2 or more instruments, Arrangement
Series: Legend of Zelda

AutoScroll: Slow | Medium | Fast
The Legend of Zelda: Oracle of Seasons and Oracle of Ages - House Theme (2001)
Platform: Gameboy Color
Publisher/Developer: Nintendo/Capcom
Composed by: Kiyohiro Sada
    	     Minako Adachi



Electric Guitar Tab Created By: soundsandstuff channel www.youtube.com/user/soundsandstuff
Completed on: 5/23/17
================================================================================================================ 

Guitar 1 
Standard Tuning

   Part A
E|-------------------------------------|-------------------------------------|-------------------------------------|
B|-12h13p12h13-12----------------------|-10h11p10h11-10----------------------|-12h13p12h13-12----------------------|
G|-12h14p12h14-12----12----------12----|-10h12p10h12-10----10----------10----|-12h14p12h14-12----12----------12----|
D|-------------------------14----------|-------------------------12----------|-------------------------14----------|
A|-------------------------------------|-------------------------------------|-------------------------------------|
E|-------------------------------------|-------------------------------------|-------------------------------------|

					   Part B
E|-------------------------------------|-------------------------------------|-------------------------------------|
B|-10h11p10h11-10----------------------|-8h-9p-8h-9--8-----------------8-----|-6h-8p-6h-8--6-----------------------|
G|-10h12p10h12-10----10----------10----|-8-----------------8-----------------|-7-----------------7-----------7-----|
D|-------------------------12----------|-------------------------10----------|-------------------------8-----------|
A|-------------------------------------|-------------------------------------|-------------------------------------|
E|-------------------------------------|-------------------------------------|-------------------------------------|


E|----------------------|-------15--------|
B|------------------6---|-8-----x---------|
G|-5------------5-------|-7-----x---------|
D|----------3-----------|-5---------------|
A|----------------------|-----------------|
E|----------------------|-----------------| Repeat from the beginning


Key:
h = hammer on
p = pull off
x = ghost note
========================================================================================================================

Guitar 2
Standard Tuning
	
    Part A
E|-------------------------|-------------------------|-------------------------|-------------------------|
B|-------------5-----------|-------------3-----------|-------------5-----------|-------------3-----------|
G|---------4-------4-------|---------2-------2-------|---------4-------4-------|---------2-------2-------|
D|-----5---------------5---|-----3---------------3---|-----5---------------5---|-----3---------------3---|
A|-3-----------------------|-1-----------------------|-3-----------------------|-1-----------------------|
E|-------------------------|-------------------------|-------------------------|-------------------------|

    Part B
E|-------------------------|-------------------------|-------------------------|-------------------------|
B|-------------------------|-------------------------|-------------------------|-------------------------|
G|-------------5-----------|-------------3-----------|-------------2-----------|-------------0-----------|
D|---------5-------6-------|---------5-------5-------|---------3---------------|---------0-------0-------|
A|-----6---------------6---|-----5---------------5---|-----3-------------------|-----2---------------2---|
E|-4-----------------------|-3-----------------------|-1-----------------------|-3-----------------------| Repeat from the beginning


Thank you for playing!
=======================================================================================================================
Login or Register to remove this ad.