Boss Theme (Legend of Zelda: Oracle of Seasons) Bass/Guitar Tab

Submitted: Jun 22, 2014 by JeremiahTheJuggler (Last updated: Jul 25, 2014)

0
Download | Listen
Game: Legend of Zelda: Oracle of Seasons
Composer(s): M-Adachi, Kyopi
Style: 2 or more instruments, Transcription
Series: Legend of Zelda

AutoScroll: Slow | Medium | Fast
Game: Legend of Zelda: Oracle of Seasons
Song: Boss Theme

Tabbed by: JeremiahTheJuggler

Guitar

   e   s e   s q       e   e   e    e   s e   s q       e   e   e    
e||7-----7-----7-----------0---3---|6-----6-----6-------6---5---4---|
B||8-----8-----8-------0-----------|7-----7-----7-------------------|
G||----9-----9---------------------|----8-----8---------------------|
D||--------------------------------|--------------------------------|
A||--------------------------------|--------------------------------|
E||--------------------------------|--------------------------------|

   e   s e   s e   h                s e   s e   s e   s e   s s s s 
e||7-----7-----7---L---------------|6-7---8-9---1011--1213--14151617|
B||8-----8-----8---L---------------|--------------------------------|
G||----9-----9---------------------|--------------------------------|
D||--------------------------------|--------------------------------|
A||--------------------------------|--------------------------------|
E||--------------------------------|--------------------------------|

   e   s e   s q       e   e   e    e   s e   s q       e   e   e    
e||7-----7-----7-----------0---3---|6-----6-----6-------6---5---4---|
B||8-----8-----8-------0-----------|7-----7-----7-------------------|
G||----9-----9---------------------|----8-----8---------------------|
D||--------------------------------|--------------------------------|
A||--------------------------------|--------------------------------|
E||--------------------------------|--------------------------------|

   e   s e   s q       e   e   e    s e   s s s s s h                
e||7-----7-----7-----------0---3---|5-6---7-8-9-101112--------------|
B||8-----8-----8-------0-----------|--------------------------------|
G||----9-----9---------------------|--------------------------------|
D||--------------------------------|--------------------------------|
A||--------------------------------|--------------------------------|
E||--------------------------------|--------------------------------|

   e+    e+    e   e+    s          e+    e+    e   e+    s          
e||8-----------8---7---------------|8-----------8---9-----16--------|
B||8-----8-----8---7-----7---------|8-----8-----8---7-----13--------|
G||------9---------------8---------|------9-------------------------|
D||--------------------------------|--------------------------------|
A||--------------------------------|--------------------------------|
E||--------------------------------|--------------------------------|

   e+    e+    e   e   e   e   e    s e   s e   s e   s e   s s s s  
e||8-----------8---7---6---11--10--|109---8-7---6-5-----------------|
B||8-----8-----8-------------------|------------------9-8---7-6-5-4-|
G||------9---------4---3---8---7---|--------------------------------|
D||--------------------------------|--------------------------------|
A||--------------------------------|--------------------------------|
E||--------------------------------|--------------------------------|

   s e   s e   s e   s e   s s s s
e||--------------------------------|--------------------------------|
B||3-2-----------------------------|--------------------------------|
G||------5-4---3-2---1-0-----------|--------------------------------|
D||------------------------4-3-2-1-|--------------------------------|
A||--------------------------------|--------------------------------|
E||--------------------------------|--------------------------------|

Bass

   s s s s s s s s s s s s s s s s  s s s s s s s s s s s s s s s s  
G||--------------------------------|--------------------------------|
D||----14------14------14------14--|----13------13------13------13--|
A||--14--14--14--14--14--14--14--14|--12--12--12--12--12--12--12--12|
E||12------12------12------12------|11------11------11------11------|

   s s s s s s s s s s s s s s s s  s e   s e   s e   s e   s s s s 
G||--------------------------------|1716--1514--1312----------------|
D||----14------14------14------14--|------------------1615--14131211|
A||--14--14--14--14--14--14--14--14|--------------------------------|
E||12------12------12------12------|--------------------------------|

   s s s s s s s s s s s s s s s s  s s s s s s s s s s s s s s s s  
G||--------------------------------|--------------------------------|
D||----14------14------14------14--|----13------13------13------13--|
A||--14--14--14--14--14--14--14--14|--12--12--12--12--12--12--12--12|
E||12------12------12------12------|11------11------11------11------|

   s s s s s s s s s s s s s s s s  s e   s s s s s s s s s s s s s 
G||--------------------------------|--------------------------------|
D||----14------14------14------14--|--------------------14------14--|
A||--14--14--14--14--14--14--14--14|1413--1211--------14--14--14--14|
E||12------12------12------12------|----------15141312------12------|

   s s s s s s s s s s s s s s s s  s s s s s s s s s s s s s s s s  
G||--------------------------------|--------------------------------|
D||----10------10------9-------9---|----10------10------9-------9---|
A||--10--10--10--10--8---8---8---8-|--10--10--10--10--8---8---8---8-|
E||8-------8-------7-------7-------|8-------8-------7-------7-------|

   s s s s s s s s s s s s s s s s  s e   s e   s e   s e   s s s s 
G||--------------------------------|----------------------------0-4-|
D||----10------10------9-------9---|--------------------------2-----|
A||--10--10--10--10--8---8---8---8-|109---8-7---6-5---4-3---2-------|
E||8-------8-------7-------7-------|--------------------------------|

   q       h+
G||9-------------------------------|--------------------------------|
D||--------------------------------|--------------------------------|
A||--------------------------------|--------------------------------|
E||--------7-----------------------|--------------------------------|


Login or Register to remove this ad.