Ads

Tokay Island (Legend of Zelda: Oracle of Ages) Guitar Tab

Submitted: Mar 03, 2022 by judgexii (Last updated: Mar 05, 2022)

5
Average: 5 (1 vote)
Download | Listen
Game: Legend of Zelda: Oracle of Ages
Composer(s): M-Adachi, Kyopi
Style: Fingerstyle
Series: Legend of Zelda

AutoScroll: Slow | Medium | Fast
"Tokay Island" - The Legend of Zelda: Oracle of Ages
Composers : Pure Sound Inc.
Arrangement : judgexii
Tuning : Standard EADGBe
BPM : 99 (4/4 time)

   Part 1
   e.  s e  e  e  e  e  e        e  e  e  e  q    s s s s      e.  s e  e  e  e  e  e        e  e  e  e  e  e  e  e 
e------0----------------------|-----0--------0--------------|------0----------------------|--1--0-----------------1-----|
B--4-----1--------------------|--4--------4-----------------|--4-----1-----------1--3-----|--------4--3-----------------|
G-----------0--3--3--2--0-----|-------------------3p2-1p0---|-----------0--3--3-----------|-------------<7>----0--------|
D--------1--2-----------------|--------1--2-----------------|--------1--2-----------------|--0--------0----<5>----------|
A--3-----------------1--1-----|--3--------------------1-----|--3-----------3-----3--3-----|--------4--------------------|
E--------------3--------------|--------------3----3---------|-----------------------------|--------------------3--3-----|

   e  e  e  e  e  e  e  e        e  e  e  e  e  e  s s s s     e  e  e  e  e  e  e  e        e  e  e  e  e  e  e  e
e-(1)-1--0--------------------|-----------------3--5p3------|-----3--2-----1--0-----------|-----------------------------|
B-----------3-----3--1--4-----|-(4)-4--3--1-4h5--------4----|-----------------------4-----|--2--3--2--3--4--1-----------|
G-----------------------------|--------------------------5--|-----------------------------|--------------------3--0-----|
D-----------------------------|--------1--2-----------------|--------------0--------------|-----5--4--3--3--1--1--------|
A--------0--3-----------------|--3-----------3-----3---3----|-----------------------------|-----------------------------|
E--1-----------1-----1--1-----|-----------------------------|--3-----3--3--------3--3-----|-----------------------------|

   e  e  e  e  q    e  e         q    e  e  e  e  e  e
e-----------------------------|-----------------------------||
B-----------------------------|-----------------------------||
G-----------------------------|-----------------------------||
D--4--5--1--4--5--------------|-------1--2------------------||
A--3--------3-------1--1------|--3----------3--------1------||
E--------------3--------------|----------------3--3---------|| Back to Part 1

Note Legend
-----------
w - whole
h - half
q - quarter
e - eighth
. - dotted

Tab Legend
-----------
() - continue holding note
h - hammer on
p - pull off
/ - slide up
\ - slide down
<> - natural harmonic
^ - brush up
Login or Register to remove this ad.