Ads

Zelda's Lullaby (Legend of Zelda: Ocarina of Time) Mandolin Tab

Submitted: Jun 24, 2018 by Mandolin Wild

5
Average: 5 (1 vote)
Download | Listen
Game: Legend of Zelda: Ocarina of Time
Composer(s): Koji Kondo
Style: Arrangement
Series: Legend of Zelda

Click here for a video example.

AutoScroll: Slow | Medium | Fast
The Legend of Zelda - Ocarina of Time
Zelda's Lullaby
Koji Kondo
Arr. Mandolin Wild

4/4

  |   |   |   |    |   |   |   |    |   |   |   |    |   |   |   |    
|---------0------|---------2------|---------0------|---------2------|
|----------------|-----0----------|----------------|-----0----------|
|-----5----------|----------------|-----5----------|----------------|
|-5--------------|-5--------------|-5--------------|-5--------------|
 
3/4

  |   |   |    |   |   |    |   |   |    |   |   |     
|------------|------------|------------|------------|
|-2-------5--|-0---------0|-2-------5--|-0----------|
|-X-2-5------|-4---4---5--|-X-2-5------|-4---4------|
|-5----------|---5--------|-5----------|---5--------|
 

  |   |   |    |   |   |    |   |   |    |   |   |    |   |   |    
|------------|-5-------3--|------------|------------|-10---------|
|-2-------5--|-0----------|-5-------3-2|-0----------|-0---10-----|
|-X-0-5------|-2-2-5------|-0-2-5------|-4---4------|---10-------|
|-4----------|-3----------|-2----------|---5--------|------------|
 

  |   |   |    |   |   |    |   |   |    |   |   |    |   |   |    
|-----2------|-10--0---8-7|-8-7--------|-8-------7-5|-7-5-0------|
|---3--------|-7-----0----|-7---10-----|---0-3-0----|-2---2------|
|-0----------|-7-10-------|-9-----0----|-0----------|-2-----2----|
|------------|-10---------|------------|------------|-5----------|
 

  |   |   |    |   |   |    |   |   |    |   |   |    |   |   |    
|-10--0---8-7|-8-7-----8/-|-15---------|------------|-------2-3--|
|-7-----0----|-7---10-----|-----11-----|---------0-3|-----2------|
|-7-10-------|-9-----0----|---12-------|-3-----3----|---0-------5|
|-10---------|------------|------------|---2-5------|-0----------|
 

  |   |   |     |   |   |    |   |   |    |   |   |    |   |   |    
|-------------|------------|------------|------------|------------|
|-------------|-----2------|---0-3------|-----2------|---0-3------|
|-------------|---5-----0--|------------|---5-----0--|------------|
|-------------|-4----------|-2-------0-2|-4----------|-2----------|
 

  |   |   |    |   |   |    |   |   |    |   |   |    |   |   |    
|------------|-----3------|-----3------|------------|---3-5------|
|-----2------|-0-4--------|---3--------|---0-3------|-5----------|
|---5-----0--|---------5--|-0----------|------------|------------|
|-4----------|------------|---------5-4|-2----------|------------|
 

  |   |   |    |   |   |    |   |   |    |   |   |    |   |   |    
|---2-2------|-10--0---8-7|-8-7--------|-8-------7-5|-7-5-0------|
|-5----------|-7-----0----|-7---10-----|---0-3-0----|-2---2------|
|------------|-7-10-------|-9-----0----|-0----------|-2-----2----|
|------------|-10---------|------------|------------|-5----------|
 

  |   |   |    |   |   |    |   |   |    |   |   |    |   |   |    
|-10--0---8-7|-8-7-----8/-|-15---------|------------|-------2-3--|
|-7-----0----|-7---10-----|-----11-----|---------0-3|-----2---2--|
|-7-10-------|-9-----0----|---12-------|-3-----3----|---0-----5--|
|-10---------|------------|------------|---2-5------|-0-------0--|
 


Tablature Legend
----------------
/ - slide
X - dead note

Login or Register to remove this ad.