Login or Register to remove this ad.

Zelda's Lullaby (Legend of Zelda: Ocarina of Time) Bass/Guitar Tab

Submitted: Feb 16, 2017 by hadentro

5
Average: 5 (3 votes)
Download | Listen
Game: Legend of Zelda: Ocarina of Time
Composer(s): Koji Kondo
Style: 2 or more instruments, Arrangement, Fingerstyle
Series: Legend of Zelda

AutoScroll: Slow | Medium | Fast
Zelda's Lullaby
Arranged by hadentro

Standard Tuning (Capo 2)


Cmaj7        Bm7          Cadd9        Esus4
x 3 2 0 0 x  x 2 0 2 0 x  x 3 2 0 3 x  x x 2 4 5 5

Dsus4        A7sus4       Asus4          Gsus4
x x 0 0 3 3  x 0 2 0 3 x  x x 7 9 10 10  x x 5 7 8 8

Esus4/B
x 2 2 4 5 5


6/8
    Cmaj7  Cadd9 Bm7           Cmaj7  Cadd9 Bm7           Cmaj7  Cadd9
||-------------|-------------|------------|-------------|-------------|
||o-0-------3--|-------------|-0-------3--|-------------|-0-------3---|
||--0---0---0--|-2---2---0-2-|-0---0---0--|-2---2---0-2-|-0---0---0---|
||----2---2----|---0---0-----|---2---2----|---0---0-----|---2---2-----|
||o-3----------|-2-----------|-3----------|-2-----------|-3-----------|
||-------------|-------------|------------|-------------|-------------|

  Esus4  Dsus4 A7sus4        Bm7
|-5-------3--|-------------|-------------|
|-5---5---3--|-3-------1-0-|-------------|
|---4---4----|-0---0-------|-2---2---0-2-|
|-2----------|---2---2-----|---0---0-----|
|------------|-0-----------|-2-----------|
|------------|-------------|-------------|

  Cmaj7  Cadd9 Bm7           Cmaj7  Cadd9
|------------|-------------|------------|
|-0-------3--|-------------|-0-------3--|
|-0---0---0--|-2---2---0-2-|-0---0---0--|
|---2---2----|---0---0-----|---2---2----|
|-3----------|-2-----------|-3----------|
|------------|-------------|------------|
                                                    To Coda D.C. al Coda
  Bm7           Cmaj7  Esus4 Esus4  Dsus4 Asus4     Gsus4 Esus4/B
|-------------|------------|-5-------3--|-10--------8-7-|-5------------||
|-------------|-0-------3--|-5---5---3--|-10---10---8---|-5---5--------||
|-2---2---0-2-|-0---0---0--|---4---4----|----9----9-----|---4---4-0-2--||
|---0---2-----|---2---2----|-2----------|--7--------5-4-|--------------||
|-2-----------|-3----------|------------|---------------|-2------------||
|-------------|------------|------------|---------------|--------------||

&
  Esus4
|-5----(5)--*|----|
|-5----(5)--*|----|
|-----------*|----|
|-2----(2)--*|----|
|-----------*|----|
|-----------*|----|
Login or Register to remove this ad.