Ads

Zelda's Lullaby (Legend of Zelda: Ocarina of Time) Ukulele Tab

Submitted: Sep 17, 2016 by Steven Laity

5
Average: 5 (1 vote)
Download | Listen
Game: Legend of Zelda: Ocarina of Time
Composer(s): Koji Kondo
Style: Arrangement
Series: Legend of Zelda

AutoScroll: Slow | Medium | Fast
Zelda's Lullaby - Ukulele
Arranged by Steven Laity

|--2-------5--|--0--------0-|--2-------5--|--0----------|
|------0------|-------2-----|------0------|-------2-----|
|----0--------|-----0-------|----0--------|-----0-------|
|--0-----0----|--0-------0--|--0-----0----|--0----------|

|--2-------5--|--12------10-|--5-------3--|--0----------|
|--2----2-----|--10---10----|--7----7---7-|--2----2-----|
|--2--2-------|--10-10------|--0--0-------|--2--2-------|
|--2-----2----|--0------0---|--0-----0----|--0----------|

|--2-------5--|--0--------0-|--2-------5--|--0----------|
|------0------|-------2-----|------0------|-------2-----|
|----0--------|-----0-------|----0--------|-----0-------|
|--0-----0----|--0-------0--|--0-----0----|--0----------|

|--2-------5--|--12------10-|--17-------5-|--5----------|
|--2----2-----|--10---10----|--0----0-----|--2----2-----|
|--2--2-------|--10-10------|--0--0-------|--2--2-------|
|--2-----2----|--0------0---|--0------0---|--0----------|
Login or Register to remove this ad.