Ads

Song Of Storms (ukulele) (Legend of Zelda: Ocarina of Time) Ukulele Tab

Submitted: Feb 05, 2019 by Apollonia93 (Last updated: Feb 11, 2019)

4.666665
Average: 4.7 (3 votes)
Download | Listen
Game: Legend of Zelda: Ocarina of Time
Composer(s): Koji Kondo
Style: Arrangement
Series: Legend of Zelda

Click here for a video example.

AutoScroll: Slow | Medium | Fast
This is my solo arrangement for Song of Storms, for a ukulele that is tuned re-entrant with a high G string. The score was written by Koji Kondo for the 1998 Nintendo game The Legend Of Zelda: Ocarina Of Time. 


Rhythm section (0:01, ad infinitum)

     Dm          Em     F            Em    Dm          Em     F            Em
A|---0---0-------2------3---3--------2-|---0---0-------2------3---3--------2-|   
E|---1---1-----3------1------------3---|---1---1-----3------1------------3---|
C|-2---------4-------------------4-----|-2---------4-------------------4-----|  
g|---------------0------2---2--------0-|---------------0------2---2--------0-|

     Dm          Em     F            Em    A#m         Dm7    A#m         A            
A|---0---0-------2------3---3--------2-|---1---1-------0------1---1-------0-|
E|---1---1-----3------1------------3---|---1---1-----1--------1---1-----0---|
C|-2---------4-------------------4-----|-2---------0--------2---------1---1-|
g|---------------0------2---2--------0-|---------------2--------------------|

       Dm          Em     F            Em     A#m         A
A|-----0---0-------2------3---3--------2-|----1---1-------0--0-|
E|-----1---1-----3------1------------3---|----1---1-----0------|
C|-2-----------4-------------------4-----|-2----------1---1----|
g|-----------------0------2---2--------0-|---------------------| 


Lead section (begins at 0:08)

       D        D            E       Dm      D   Dm        
A|-----5--------5-|-7--8-7-8-7-3-0-|-0-------0-|-0---------|
E|---1--------1---|----------0-----|-1---1-3---|-1---1-3-0-|
C|-2---2----2---2-|----------0-----|-2-2-----2-|-2-2-----0-|
g|----------------|----------------|-----------|-----------|
 
       D       D            E       Dm      D   Dm
A|-----5-|-----5-|-7--8-7-8-7-3-0-|-0-------0-|-0----|
E|---1---|---1---|----------0-----|-1---1-3---|-1----|
C|-2---2-|-2---2-|----------0-----|-2-2-----2-|-2--2-|
g|-------|-------|----------------|-----------|------|
Login or Register to remove this ad.

1 comment on Song Of Storms (ukulele)

Perfect

5

if only i knew a person other than myself who played lol