Ads

Song of Storms (Legend of Zelda: Ocarina of Time) Guitar Tab

Submitted: Jun 02, 2014 by Iriasviel

4.666665
Average: 4.7 (3 votes)
Download | Listen
Game: Legend of Zelda: Ocarina of Time
Composer(s): Koji Kondo
Style: 2 or more instruments, Arrangement
Series: Legend of Zelda

AutoScroll: Slow | Medium | Fast
Composer: Koji Kondo
Series: Legend of Zelda
Description: Intervals are not synchronized. Just try to play it by ear.
Tabbed by: Mateusz Ku┼║niak

Guitar 1:
When the Guitar 2 loop begins:
E |--------10----------10------|
B |----------------------------|
G |-----10----------10---------|
D |--12----------12------------|
A |----------------------------|
E |----------------------------|

--12---13-12-13-12-----------|----------------------------|
--------------------13-10----|--10--------------10~-------|
-----------------------------|------------10-12-----------|
-----------------------------|-------12-------------------|
-----------------------------|----------------------------|
-----------------------------|----------------------------|

----------------------------|--------10----------10------|
--10------------------------|----------------------------|
------------10-12-9~--------|-----10----------10---------|
-------12-------------------|--12----------12------------|
----------------------------|----------------------------|
----------------------------|----------------------------|

--12---13-12-13-12-----------|----------------------------|----------|----||
--------------------13-10----|--10--------------10~-------|--10------|----||
-----------------------------|------------10-12-----------|----------|---o||
-----------------------------|-------12-------------------|-----12~--|---o||
-----------------------------|----------------------------|----------|----||
-----------------------------|----------------------------|----------|----||

Guitar 2:

Intro:
E |------5-----5------------7~-------|------8-----8------------7~-------|
B |------6-----6------------8~-------|------10----10-----------8~-------|
G |------7-----7---------9-----------|------10----10--------9-----------|
D |--0-------------------------------|----------------------------------|
A |--------------------7-------------|--8-----------------7-------------|
E |----------------------------------|----------------------------------|


Looped part:
|------5-----5------------7~-------|------8-----8------------7~-------|
|------6-----6------------8~-------|------10----10-----------8~-------|
|o-----7-----7---------9-----------|------10----10--------9-----------|
|o-0-------------------------------|----------------------------------|
|--------------------7-------------|--8-----------------7-------------|
|----------------------------------|----------------------------------|

------5-----5------------7~-------|------8-----8------------7~-------|
------6-----6------------8~-------|------10----10-----------8~-------|
------7-----7---------9-----------|------10----10--------9-----------|
--0-------------------------------|----------------------------------|
--------------------7-------------|--8-----------------7-------------|
----------------------------------|----------------------------------|

------------------------------|-----------------------------|
------11-11---------10--------|------11-11------------------|
------10-10-------9-----------|------10-10-------9----------|
---8------------7-------------|---8------------7---7--------|
------------------------------|-----------------------------|
------------------------------|-----------------------------|

------5-----5------------7~-------|------8-----8------------7~-------|
------6-----6------------8~-------|------10----10-----------8~-------|
------7-----7---------9-----------|------10----10--------9-----------|
--0-------------------------------|----------------------------------|
--------------------7-------------|--8-----------------7-------------|
----------------------------------|----------------------------------|

------------------------------|------5-----5------------7~-------|
------11-11---------10--------|------6-----6------------8~-------|
------10-10-------9-----------|------7-----7---------9-----------|
---8------------7-------------|--0-------------------------------|
------------------------------|--------------------7-------------|
------------------------------|----------------------------------|

------8-----8------------7~-------|||
------10----10-----------8~-------|||
------10----10--------9----------o|||
---------------------------------o|||
--8-----------------7-------------|||
----------------------------------|||
Login or Register to remove this ad.