Ads

Shop (Legend of Zelda: Ocarina of Time) Bass Tab

Submitted: Sep 11, 2020 by DKOH (Last updated: Sep 18, 2020)

0
Download | No audio :(
Game: Legend of Zelda: Ocarina of Time
Composer(s): Koji Kondo
Style: Fingerstyle
Series: Legend of Zelda

AutoScroll: Slow | Medium | Fast
The Legend of Zelda: Ocarina of Time - "Shop"
Composed by Koji Kondo
Tabbed by Kyle O'Halloran
[email protected]

Verse x1:

G|------------------------------------------------------------------------------|
D|----5-----------5-----5-----------5--3--------------------------5-------------|
A|3--3---------3----------2--5------------5-----2--5---2-5----3--3-------------2|
E|-------3----3-------------------3-----------3-------------3-------3----3--5---|

G|---------------------------------------------------------------------------------|
D|---5-5--------5---------5--5-3----0-----0-------5--5-3-----------------5-5-------|
A|3-----------3------2----------------2-2------------------5--0--2--3--3-----3-3-3-|
E|-------3--------3---------------------------3------------------------------------|

Chorus x1:

G|---------------------------------------------------------|
D|-------3-----3-------2-----2-------------------2--------5|
A|----3------3------3------3------2--5-----5--3---------3--|
E|-1-------------0-------------3---------3----------3------|

G|------------------------------------------------------------|
D|-------3-----3-------2-----5--------------------------------|
A|----3------0------3------3------2--5-----2--3-3-3--0--3-3-3-|
E|-1-------------0-------------3---------3--------------------|

Then repeat endlessly.
Login or Register to remove this ad.