Ads

Shop (Legend of Zelda: Ocarina of Time) Guitar Tab

Submitted: Dec 21, 2014 by bravetiger1

5
Average: 5 (2 votes)
Download | Listen
Game: Legend of Zelda: Ocarina of Time
Composer(s): Koji Kondo
Style: Transcription
Series: Legend of Zelda

AutoScroll: Slow | Medium | Fast
Shop
The Legend of Zelda: Ocarina of Time
Composed by Koji Kondo
Tabbed by bravetiger1
12/14/14

|--3--3---1-3--------------------|
|-------3--------3--1-0----------|
|-----------------------0--------|
|-------------------------3-0----|
|--------------------------------|
|--------------------------------|

|---------------------------------------------------------------------------------------------------|
|--1--1-1----------1---------1-1-0--0-0-------------------0--0-0----------0-------0-1--1-1---1-1-1--|
|---------2-2-0------0-0-2-2------------2-2-0---0-2-2-3-3--------2-2-0------0-0-2-------------------|
|---------------------------------------------------------------------------------------------------|
|---------------------------------------------------------------------------------------------------|
|---------------------------------------------------------------------------------------------------| 2x


Melody only

|------0-1---------------1--0------------------------------1---0---0---------------0-|
|--1-3------1------------------1---------------0-----------------3-------------1-3---|
|--------------2------2-----------0------0-2-3----2--0-------------------------------|
|------------------------------------------------------------------------------------|
|------------------------------------------------------------------------------------|
|------------------------------------------------------------------------------------|

|--1------------1-0---0---------------------------------------------------------|
|-----1-------------3----1---------------0-----------1-3-1-0-1------------------|
|--------2------------------0------0-2-3----2--0---0----------------------------|
|-------------------------------------------------------------------------------|
|-------------------------------------------------------------------------------|
|-------------------------------------------------------------------------------|


Alternative with trumpet fills

|------0-1-----------1-1-1--0-----------0-0-0--------------------0---------------0-0-|
|--1-3------1------------------1---------------0-----------3-3-3-------1-1-1-3-3-----|
|--------------2---2--------------0---0-----------2--0---0---------------------------|
|------------------------------------------------------------------------------------|
|------------------------------------------------------------------------------------|
|------------------------------------------------------------------------------------|

|--1-----------1-1-1--0-----------0-0-0-----------------------------------------|
|-----1------------------1---------------0-----------3-3-3--1-1-1---------1-1-1-|
|--------2---2--------------0---0-----------2--0---0---------------2--1-2-------|
|-------------------------------------------------------------------------------|
|-------------------------------------------------------------------------------|
|-------------------------------------------------------------------------------|
Login or Register to remove this ad.