Ads

Prelude of Light (Legend of Zelda: Ocarina of Time) Guitar Tab

Submitted: Jul 22, 2011 by 150link (Last updated: Jul 22, 2011)

5
Average: 5 (3 votes)
Download | Listen
Game: Legend of Zelda: Ocarina of Time
Composer(s): Koji Kondo
Style: Arrangement
Series: Legend of Zelda

AutoScroll: Slow | Medium | Fast
Prelude of Light
Game: The Legend of Zelda Ocarina of Time
Composer: Koji Kondo
Tabber: 150link



   E Q.   E E E E   W          E Q.   E E E E   W
e|----------------|----------|----------------|------|
B|-3------3-----3-|-0--------|-3------3-----3-|-0----|
G|-2-2------2-4---|-0--------|-2-2------2-4---|-0----|
D|-4--------------|----------|-4--------------|------|
A|-5--------------|-2--------|-5--------------|-2----|
E|----------------|----------|----------------|------|

                                                            ^
   W          W          Q  E  E  E  E  E  E    E  E  E  E  H
e|----------|----------|---------------------|----14-17-21-22----|
B|-3--------|-3--------|-2-------------------|-15----------22----|
G|-0--------|-3--------|-2-------------11-14-|-------------------|
D|-2--------|-5--------|-4--0-------12-------|-------------------|
A|-2--------|-6--------|-5-------12----------|-------------------|
E|----------|-6--------|-5----14-------------|-------------------|



Duration Legend
---------------
W - whole
H - half
Q - quarter
E - 8th
S - 16th
T - 32nd
X - 64th
. - note dotted
|-n-|  - n-tuplets


Tablature Legend
----------------
L - tied note
x - dead note
g - grace note
(n) - ghost note
> - accentuded note
NH - natural harmonic
AH - artificial harmonic
TH - tapped harmonic
SH - semi harmonic
PH - pitch harmonic
h - hammer on
p - pull off
b - bend
br - bendRelease
pb - preBend
pbr - preBendRelease
brb - bendReleaseBend
\n/ - tremolo bar dip
\n - tremolo bar dive
-/n - tremolo bar Release up
/n\ - tremolo bar inverted dip
/n - tremolo bar return
-\n - tremolo bar Release down
S - shift slide
s - legato slide
/ -  slide into from below or out of upwards
\ -  slide into from above or out of downwards
~ - vibrato
W - wide vibrato
tr - trill
TP - tremolo picking
T - tapping
S - slap
P - pop
< - fade in
^ - brush up
v - brush down
Login or Register to remove this ad.