Ads

Lost Woods (Legend of Zelda: Ocarina of Time) Guitar Tab

Submitted: Feb 09, 2018 by FingerstyleGaming

4
Average: 4 (2 votes)
Download | Listen
Game: Legend of Zelda: Ocarina of Time
Composer(s): Koji Kondo
Style: Arrangement, Fingerstyle, Natural harmonics
Series: Legend of Zelda

AutoScroll: Slow | Medium | Fast
                                            Lost woods                                              


Nylon Guitar
     E  E  E  E  E  E  E  E     E  E  E   E   E   E  E  E     E   E   E   E  E   E   E   E   
E||-----5--7--L-----5--7--L--|-----5--7--12--10---L--7--8--|--7-----------------------------|
C||--5--0--0--0--5--0--0--0--|--5--0--0---0-------0--0--0--|------7-------------------------|
A||-----0--0--0-----0--0--0--|-----0--0---0-------0--0--0--|----------7---L--L---L---L---5--|
D||--3-----------3-----------|--3--------------------------|------9---9---9------9---9---9--|
A||--------------------------|----------------8------------|-----10--10--10-----10--10--10--|
E||--------------------------|-----------------------------|--0--------------0--------------|


  E   E   E   E  E   E   E   E     E  E  E  E  E  E  E  E     E  E  E   E   E   E  E  E   
--------------------------------|-----5--7--L-----5--7--L--|-----5--7--12--10---L--7--8--|
------7-------------------------|--5--0--0--0--5--0--0--0--|--5--0--0---0-------0--0--0--|
--7-------7---L--L---L---L---L--|-----0--0--0-----0--0--0--|-----0--0---0-------0--0--0--|
------9---9---9------9---9---9--|--3-----------3-----------|--3--------------------------|
-----10--10--10-----10--10--10--|--------------------------|----------------8------------|
--0--------------0--------------|--------------------------|-----------------------------|


   E   E   E   E  E   E   E   E     E   E   E   E  E   E   E   E     E  E  E  E  E  E  E  E   
--12---7----------------------7--|--------------------------------|--------------------------|
-----------7---L--L---L---L------|--7-----------------------------|--------------------------|
---------------------------------|----------7---L--L---L---L---L--|-----------------0--2--L--|
-------9---9---9------9---9---9--|-----12---9---9------9---9---9--|--3--5--7--L--5-----------|
------10--10--10-----10--10--10--|-----10--10--10-----10--10--10--|--5-----5-----------------|
---0--------------0--------------|--0--------------0--------------|--------------3-----3-----|


  E  E  E  E  Q    Q       E  E  E  E  E  E  E  E     E  E  E  E  Q    Q     
------------------------|--------------------------|------------------------|
--0---------------------|--------------------------|--0--2--4--L------------|
-----2------------------|-----------------0--2--L--|------------------------|
--------2--L------------|--3--5--7--L--5-----------|------------------------|
--3-----3-----0----0----|--5-----5-----------------|--3-----3-----0----0----|
------------------------|--------------3-----3-----|------------------------|


  E  E  E  E  E  E  E  E     E  E  E  E  Q    Q       E  E  E  E  E  E  E  E   
--------------------------|------------------------|--------------------------|
--------------------------|--0---------------------|--------------------0-----|
-----------------0--2--L--|-----2------------------|--------0-----2--0--0--2--|
--3--5--7--L--5-----------|--------2--L------------|--3--2--3--5--5--3-----5--|
--5-----5-----------------|--3-----3-----0----0----|--5--3-----7--------------|
--------------3-----3-----|------------------------|--------------------------|


                                                                              NH     
  E  E  E  E  E  E  S E  S    E  E  E  E  E  E  E  E     E  E  E  E  E  E     Q      
--------------------0-1----|--0-----------------------|--------------------<>12----||
--2--0--4--2--5--4----0--2-|--------------------------|----------------------------||
--2--0--3--2--5--3--2----2-|--2--2-----2-----2-----2--|-----2--2--2--2-------------||
---------------------------|-----7-----7-----7-----7--|-----6--6--6--6-------------||
---------------------------|--------------------------|----------------------------||
---------------------------|--0-----------0-----------|--0-------------------------||




Duration Legend
---------------
W - whole
H - half
Q - quarter
E - 8th
S - 16th
T - 32nd
X - 64th
. - note dotted
|-n-|  - n-tuplets


Tablature Legend
----------------
L - tied note
x - dead note
g - grace note
(n) - ghost note
> - accentuded note
NH - natural harmonic
AH - artificial harmonic
TH - tapped harmonic
SH - semi harmonic
PH - pitch harmonic
h - hammer on
p - pull off
b - bend
br - bendRelease
pb - preBend
pbr - preBendRelease
brb - bendReleaseBend
\n/ - tremolo bar dip
\n - tremolo bar dive
-/n - tremolo bar Release up
/n\ - tremolo bar inverted dip
/n - tremolo bar return
-\n - tremolo bar Release down
S - shift slide
s - legato slide
/ -  slide into from below or out of upwards
\ -  slide into from above or out of downwards
~ - vibrato
W - wide vibrato
tr - trill
TP - tremolo picking
T - tapping
S - slap
P - pop
< - fade in
^ - brush up
v - brush down
Login or Register to remove this ad.