Ads

Lon Lon Ranch (Legend of Zelda: Ocarina of Time) Guitar Tab

Submitted: Jan 20, 2014 by N0Stars

5
Average: 5 (3 votes)
Download | Listen
Game: Legend of Zelda: Ocarina of Time
Composer(s): Koji Kondo
Style: Arrangement, Fingerstyle
Series: Legend of Zelda

AutoScroll: Slow | Medium | Fast
The Legend of Zelda: Ocarina of Time - LonLon Ranch

Composed by Koji Kondo

Arranged for Guitar by N0Stars

Gtr I (D A D F# B E), Capo on the 5th Fret

  Q=90(8=s8)
 3/4
  Gtr I
  E E Q  E E   E E Q   Q    E E Q  E E   E E Q   Q      E E Q  E E
|------------|--------/2--|-0----------|------------||--5-2--------|
|------------|------------|------------|--------/2--||o-----5------|
|-----3--3---|-----0------|-----3--3---|-----0------||--3---3--3---|
|-----2--2---|-----0------|-----2--2---|-----0------||------2--2---|
|-0-4------4-|---0--------|-0-4------4-|---0--------||o-0-4------4-|
|------------|-0----------|------------|-0----------||-------------|


  E E Q  E E   E E Q  E E   E E Q  E E   E E Q  E E
|-5-2-0------|-5-2----2---|------------|---------------|
|------------|-----5------|-5----------|-2---1--2------|
|-----2--2---|------------|-----0--0---|---------------|
|-----2--2---|------------|-----0--0---|-----3--3------|
|----------3-|---2-5--5-2-|---0------0-|---0-4--4-0----|
|-6----------|-5----------|-4----------|-3-------------|


               1.                          2.
  E E Q  E E   E E Q  E E   E E Q  E E     E E Q  E E   E E Q  E E
|-4-5-2------|-5------5---|-4-2-0-------||-5------7---|-5-----------|
|------------|------------|------------o||------------|-------------|
|------------|-----0--0---|-----2--2----||-----0--0---|-----3--3----|
|------------|-----0--0---|-----2--2----||-----0--0---|-----2--2----|
|---0-4--4-0-|---0------0-|---2------2-o||---0------0-|-0-4------4--|
|-2----------|-0----------|-2-----------||-0----------|-------------|


  E E E E E E   E E E E E E   E E E E E E   E E E E E E
|-------------|-------------|-0-------3---|----------------|
|-6-6-6---6---|-6---8---6---|-------1-----|-1--------------|
|-----3-6-3---|-------5-----|-----1---1---|-------3--------|
|---3-------3-|-----5---5---|---2-------2-|-----2---2------|
|-------------|---8-------8-|-3-----------|-0-3-------3----|
|-3-----------|-5-----------|-------------|----------------|


  E E E E E E   E E E E E E   E E E E E E   E E E E E E
|-------------|-----0-------|-0-----------|----------------|
|-3-3-3-1-3---|-3-----0-6---|-------------|----------------|
|-------------|-------------|-------3-----|-------4--------|
|---0-3---3-0-|---0-3---3-0-|-----2---2---|-----2---2------|
|-------------|-------------|-3-3-------3-|-3-3-------3----|
|-0-----------|-5-----------|-------------|----------------|


  E E E E E E   E E E E E E   E E E E E E   E E E E E E
|-------------|-------------|-0-------3---|----------------|
|-6-6-6---6---|-6---8---6---|-------1-----|-1-----1--------|
|-----3-6-3---|-------5-----|-----1---1---|-----3---3------|
|---3-------3-|-----5---5---|---2-------2-|---2-------2----|
|-------------|---8-------8-|-3-----------|-0--------------|
|-3-----------|-5-----------|-------------|----------------|


  E E E E E E   E E E E E E   E E E E E E   E E E E E E
|-------------|-----0---1---|-0-----------|----------------|
|-3-3-3---3---|-3-----------|-------------|-------0--------|
|-------3-----|-------3-----|-------3-----|-----2---2------|
|---0-3---3-0-|-----3---3---|-----3---3---|---0-------2----|
|-------------|-3-3-------3-|-2-2-------2-|----------------|
|-0-----------|-------------|-------------|-2--------------|


    E E Q  E E   E E Q  E E   E E Q  E E   E E Q  E E   E E Q  E E
||--5-2--------|-5-2-0------|-5-2----2---|------------|------------|
||o-----5------|------------|-----5------|-5----------|-2---1--2---|
||------3--3---|-----2--2---|------------|-----0--0---|------------|
||------2--2---|-----2--2---|------------|-----0--0---|-----3--3---|
||o-0-4------4-|----------3-|---2-5--5-2-|---0------0-|---0-4--4-0-|
||-------------|-6----------|-5----------|-4----------|-3----------|


               1.                          2.
  E E Q  E E   E E Q  E E   E E Q  E E     E E Q  E E   E E Q  E E
|-4-5-2------|-5------5---|-4-2-0-------||-5------7---|-5-----------|
|------------|------------|------------o||------------|-------------|
|------------|-----0--0---|-----2--2----||-----0--0---|-----3--3----|
|------------|-----0--0---|-----2--2----||-----0--0---|-----2--2----|
|---0-4--4-0-|---0------0-|---2------2-o||---0------0-|-0-4------4--|
|-2----------|-0----------|-2-----------||-0----------|-------------|


                                H.=H
  E E Q   Q    E E Q  E E   E E Q   Q
|--------/2--|-0----------|--------------|
|------------|------------|--------/3----|
|-----0------|-----3--3---|-----0--------|
|-----0------|-----2--2---|-----0--------|
|---0--------|-0-4------4-|---0----------|
|-0----------|------------|-0------------|


       Q=70
  +Q   E  E   E   E    +H.        +H.
|--------------------|----------|--------*|
|-(3)-------------2--|-(2)------|-(2)----*|
|-------------3--(3)-|-(3)------|-(3)----*|
|---------2--(2)-(2)-|-(2)------|-(2)----*|
|------0-(0)-(0)-(0)-|-(0)------|-(0)----*|
|--------------------|----------|--------*|


Duration Legend
---------------
W - whole; H - half; Q - quarter; E - 8th; S - 16th; T - 32nd; X - 64th; a - acciaccatura
+ - note tied to previous; . - note dotted; .. - note double dotted
Uncapitalized letters represent notes that are staccato (1/2 duration)
Irregular groupings are notated above the duration line
Duration letters will always appear directly above the note/fret number it represents the
duration for.  Duration letters with no fret number below them represent rests.  Multi-
bar rests are notated in the form Wxn, where n is the number of bars to rest for.  Low
melody durations appear below the staff

Tablature Legend
----------------
 h   - hammer-on
 p   - pull-off
 b   - bend
 pb  - pre-bend
 r   - bend release (if no number after the r, then release immediately)
 /\  - slide into or out of (from/to "nowhere")
 s   - legato slide
 S   - shift slide
  - natural harmonic
[n]  - artificial harmonic
n(n) - tapped harmonic
 ~   - vibrato
 tr  - trill
 T   - tap
 TP  - trem. picking
 PM  - palm muting
\n/  - tremolo bar dip; n = amount to dip
 \n  - tremolo bar down
 n/  - tremolo bar up
/n\  - tremolo bar inverted dip
 =   - hold bend; also acts as connecting device for hammers/pulls
 <>  - volume swell (louder/softer)
 x   - on rhythm slash represents muted slash
 o   - on rhythm slash represents single note slash

Misc Legend
-----------
 |  - bar
||  - double bar
||o - repeat start
o|| - repeat end
*|  - double bar (ending)
 :  - bar (freetime)
 $  - Segno
 &  - Coda
Tempo markers -  = BPM(8/16=s8/s16), where s8 = swing 8ths, s16 = swing 16ths


***************************************************************************************
* Generated using Power Tab Editor by Brad Larsen - http://powertab.guitarnetwork.org *
***************************************************************************************
Login or Register to remove this ad.