Ads

Kokiri Forest (Legend of Zelda: Ocarina of Time) Guitar Tab

Submitted: Aug 22, 2013 by Alfa_ice

5
Average: 5 (8 votes)
Download | Listen
Game: Legend of Zelda: Ocarina of Time
Composer(s): Koji Kondo
Style: Arrangement, Fingerstyle
Series: Legend of Zelda

AutoScroll: Slow | Medium | Fast
                                Kokiri Forrest                                  

The Legend of Zelda: Ocarina of Time
Standard tuning: EADGBE
Tabbed by: Alfa_ice
Difficulty: Medium



                                       |--3--|  |--3--|  3             
     Q    S Q.     E  Q    Q    E.     E  E  E  E  E  E  H.            
E||---------------------------------|-----------------6--L------------|
B||--3------1---------3----4----6---|-----------L--6------------------|
G||--4------2---------4----5----7---|--------L--7---------------------|
D||-------------------5----6----8---|-----L--8------------------------|
A||---------------------------------|-----8---------------------------|
E||--3------3---------3----4----6---|--6------------------------------|


  E   E  Q    E  E  Q       E   E  Q    E  E  Q     
-------------------------|-------------------------|
-------------------------|-------------------------|
-------------------------|-------------------------|
-----10----------8-------|-----10----------8-------|
-------------------------|-------------------------|
--8---L-------6--L-------|--8---L-------6--L-------|


                |-----3----|                                       
    E  E  E  E  E  E  Q    Q       S   S  E  E  S  S  E  E  E  E   
|------8------------------------|---------------------------------|
|---8-----8----------------6----|--8h-10p-8--L--6h-8p-6--L--------|
|*-----------9--7--L--9---------|---------------------------9--7--|
|*------------------------------|---------------------------------|
|-------------------------------|---------------------------------|
|---8--L--------6--L------------|--8------L-----------6--L--------|


  E  E  E  E  E  E  E  E     E  E  E  E  E  Q    E   
--------------------------|-------------------------|
--5--------------------3--|-------------------------|
-----5-----L--3-----3-----|--5-----L--0-----L-------|
-----------------5--------|-------------------------|
--------------------------|--3--L-------------------|
--8--L--------6--L--------|--------------6--L-------|


              |-----3----|                                       
  E  E  E  E  E  E  Q    Q       S   S  E  E  S  S  E  E  E  E   
-----8------------------------|---------------------------------|
--8-----8----------------6----|--8h-10p-8--L--6h-8p-6--L--------|
-----------9--7--L--9---------|---------------------------9--7--|
------------------------------|---------------------------------|
------------------------------|---------------------------------|
--8--L--------6--L------------|--8------L-----------6--L--------|


  E  E  E  E  E  E  E  E     E  E  Q    E  E  Q       E  E  E  E  E  E  E  E   
--------------------------|------------------------|--------------------------|
--5--------------------3--|------------------------|--------1--------3--------|
-----5-----L--3-----3-----|--5----------------L----|-----2-----2--4-----------|
-----------------5--------|------------------------|--------------------------|
--------------------------|--3--L-------1--L-------|--------------------------|
--8--L--------6--L--------|------------------------|--1-----L-----3-----L-----|


  E  E  E  E  S  S  E  E  E     E  E  E  E  E  E  E  E   
-----------0-----------------|--------------------------|
--------1-----3h-5p-3--0-----|--------1--------3--------|
-----2-----------------------|-----2-----2--4-----------|
-----------------------------|--------------------------|
-----------------------------|--------------------------|
--1-----L-----3--------L-----|--1-----L-----3-----L-----|


  E  E  E  E  S  S E  E  E     E  E  E  E  E  E  E  E   
----------------------------|--------------------------|
-----------4--6h-8-6--------|--------1--------3--------|
-----5--7-------------7-----|-----2-----2--4-----------|
----------------------------|--------------------------|
----------------------------|--------------------------|
--4-----L-----6-------L-----|--1-----L-----3-----L-----|


  E  E  E  E  S  S  E  E  E     E  E  E  E  E  E  E  E   
-----------0-----------------|--------------------------|
--------1-----3h-5p-3--0-----|--------1--------3--------|
-----2-----------------------|-----2-----2--4-----------|
-----------------------------|--------------------------|
-----------------------------|--------------------------|
--1-----L-----3--------L-----|--1-----L-----3-----L-----|


  E  E  E  E  S  S  E  E  E     E  E  Q    E  E  E  E   
-----------------------------|--0----------------L-----|
-----------4--6h-8p-6--------|-------------------------|
-----5--7--------------7-----|-------------------------|
-----------------------------|-------------------------|
-----------------------------|--3--L-------1--L--------|
--4-----L-----6--------L-----|-------------------------|


  E  E  Q    E  E  Q       S  S  E  E  S  S  E  E  S  S  E   
------------------------|--3h-5p-3--L--1h-3p-1--L--0h-1p-0--|
------------------------|-----------------------------------|
------------------------|-----------------------------------|
------------------------|-----------------------------------|
--3--L-------1--L-------|--3-----L-----------1--L-----------|
------------------------|-----------------------------------|


  E  E  E  E  E  E  E  E     E  E  E  E  E  E  Q       E  E  E  E  E  E  Q     
--------L-----------------|-------------------------|--1-----L--0--------L----|
-----------3--1-----1--3--|--1-----L----------------|--1-----L--1--------L----|
-----------------3--------|-----------0--------L----|-------------------------|
--------------------------|-------------------------|-------------------------|
--3--L--------1--L--------|--3--L--------1--L-------|--3--L--------1--L-------|
--------------------------|-------------------------|-------------------------|


  S  S  E  E  S  S  E  E  S  S  E     E  E  E  E  E  E  E  E   
-----------------------------------|--------------------------|
-----------------------------------|--------------------------|
--5h-7p-5--L--3h-5p-3--L--2h-3p-2--|--------L--0-----------0--|
-----------------------------------|--------L-----3--2--3-----|
--3-----L-----------1--L-----------|--3--L--------1--L--------|
-----------------------------------|--------------------------|


  E  E  E  E  E  E  Q       E  E  Q    E  E  Q       
-------------------------|-------------------------||
-------------------------|-------------------------||
--------------0--L--L----|--3-----L---------------*||
--2--------L--2-----L----|--2-----L---------------*||
--3--L--------1--L-------|--3--L-------------------||
-------------------------|-------------6--L--------||


              |-----3----|                                       
  E  E  E  E  E  E  Q    Q       S   S  E  E  S  S  E  E  E  E   
-----8------------------------|---------------------------------|
--8-----8----------------6----|--8h-10p-8--L--6h-8p-6--L--------|
-----------9--7--L--9---------|---------------------------9--7--|
------------------------------|---------------------------------|
------------------------------|---------------------------------|
--8--L--------6--L------------|--8---L--L-----------6--L--------|


  E  E  E  E  E  E  E  E     W                   W                  
--------------------------|-------------------|-------------------||
--5--------------------3--|-------------------|-------------------||
-----5-----L--3-----3-----|--5----------------|--L----------------||
-----------------5--------|-------------------|-------------------||
--------------------------|--3----------------|--L----------------||
--8--L--------6--L--------|-------------------|-------------------||




Duration Legend
---------------
W - whole
H - half
Q - quarter
E - 8th
S - 16th
. - note dotted
|-n-|  - n-tuplets


Tablature Legend
----------------
L - tied note
h - hammer on
p - pull off
Login or Register to remove this ad.

3 comments on Kokiri Forest

Any decent fingerstyle tab

5

Any decent fingerstyle tab where the tabber actually posts a recording, proving the tab is actually playable, gets an auto-5-stars from me (if I'm around). Plus, this one is fun!

Adorable

5

Even I found an easier way (apply a Dropped D tuning, then transpose -3 semi-tone) I'm gonna train with the your original fingersteps, it's a good exercise for guitarist & it sounds totally cute ^^

Really? Hey that's great

Really? Hey that's great news! Easy fingersteps are crucial to play well ;)