Ads

Introduction Theme (Legend of Zelda: Ocarina of Time) Guitar Tab

Submitted: Dec 08, 2013 by TheLosElectrons (Last updated: Dec 20, 2013)

4
Average: 4 (1 vote)
Download | Listen
Game: Legend of Zelda: Ocarina of Time
Composer(s): Koji Kondo
Style: 2 or more instruments, Transcription
Series: Legend of Zelda

AutoScroll: Slow | Medium | Fast
The Legend of Zelda - Ocarina of Time
Introduction Theme
Composed by Koji Kondo
Tabbed by TheLosElectrons

Lead

E|-----10-9p8p7------------10-9p8p7-8-7-------10-9p8p7------------10-9p8p7-12----|
B|--------------10-8-----------------------------------10-8-------------------12-|
G|-7-9-----------------7-9----------------7-9-----------------7-9----------------|
D|-------------------------------------------------------------------------------|
A|-------------------------------------------------------------------------------|
E|-------------------------------------------------------------------------------|

E|-----------------------------------------------|
B|-10-----8---10---12-8---10-----8---13----------|
G|----9-7--------9-----------9-7--------12-10-12-|
D|-----------------------------------------------|
A|-----------------------------------------------|
E|-----------------------------------------------|


Acoustic Arpeggio’s
D |---2-----0---|---------0-2-----------0-2---------0-2-----------0-2-|
A |---0-----7---|-------0-------------2-----------0-------------2-----|
Eb|---2-----8---|-----2-------------1-----------2-------------1-------|
Bb|---2-----9---|---2-------------------------2-----------------------|
F |-0-----------|-0---------------2---------0---------------2---------|
C |-------0-----|---------------0-------------------------0-----------|

D |---------0-2-----------0-2---------0-2-----------0-2-|
A |-------0-------------2-----------0-------------2-----|
Eb|-----2-------------1-----------2-------------1-------|
Bb|---2-------------------------2-----------------------|x3
F |-0---------------2---------0---------------2---------|



Like Me on Facebook: https://www.facebook.com/TheLosElectrons
Follow Me on Twitter: https://twitter.com/TheLosElectrons
Watch Me on DeviantArt: http://theloselectrons.deviantart.com/
Join Me on Zelda Sanctuary: http://www.zelda-sanctuary.net/

Information:
Song Title: Introduction Ocarina Song (Ocarina of Time Introduction Theme)
Composer: Koji Kondo



Please stay tuned for more covers, tutorials, updates, and extras

Need something or having an issue and need to speak to me directly? Please by all means feel free to leave a comment or send me a message via YouTube, Facebook, Twitter, DeviantArt, Zelda Sacntuary, or Skype. Thank you
Login or Register to remove this ad.