Ads

Great Fairy Fountain (dm137 version) (Legend of Zelda: Ocarina of Time) Guitar Tab

Submitted: Mar 06, 2012 by Yogurt

5
Average: 5 (4 votes)
Download | Listen
Game: Legend of Zelda: Ocarina of Time
Composer(s): Koji Kondo
Style: Alternate picking, Arrangement, Transcription
Series: Legend of Zelda

AutoScroll: Slow | Medium | Fast
     Q    Q    Q    Q       Q    Q    Q    Q       Q    Q    Q     Q     
E||--5-------------------|--3-------------------|-----------------------|
B||-------3--------------|-------3--------------|--7--------------------|
G||------------3---------|------------3---------|-------7---------------|
D||-----------------5----|-----------------5----|------------8----------|
A||----------------------|----------------------|-----------------10----|
E||----------------------|----------------------|-----------------------|


  Q    Q    Q    Q       Q    Q    Q    Q       Q    Q    Q    Q     
--3-------------------|--3-------------------|--1-------------------|
-------3--------------|-------1--------------|-------1--------------|
------------3---------|------------2---------|------------2---------|
-----------------5----|-----------------3----|-----------------3----|
----------------------|----------------------|----------------------|
----------------------|----------------------|----------------------|


  Q    Q    Q    Q       Q    Q    Q    Q       Q    Q    Q    Q     
--0-------------------|--1-------------------|--1-------------------|
-------1--------------|-------1--------------|----------------------|
------------2---------|------------2---------|-------3----0---------|
-----------------3----|-----------------3----|-----------------2----|
----------------------|----------------------|----------------------|
----------------------|----------------------|----------------------|


  Q    Q    Q    Q       Q    Q    Q    Q       Q    Q    Q    Q     
--0-------------------|----------------------|--0-------------------|
----------------------|--4-------------------|----------------------|
-------3----0---------|-------3----0---------|-------3----0---------|
-----------------2----|-----------------2----|-----------------2----|
----------------------|----------------------|----------------------|
----------------------|----------------------|----------------------|


  Q    Q    Q    Q       Q    Q    Q    Q       Q    Q    Q    Q     
--0-------------------|----------------------|----------------------|
----------------------|--3-------------------|--2-------------------|
-------2--------------|-------2--------------|-------2--------------|
------------3----0----|------------3----0----|------------3----0----|
----------------------|----------------------|----------------------|
----------------------|----------------------|----------------------|


  Q    Q    Q    Q       Q    Q    Q    Q       Q    Q    Q    Q     
----------------------|--5-------------------|--3-------------------|
--3-------------------|-------3--------------|-------3--------------|
-------2--------------|------------3---------|------------3---------|
------------3----0----|-----------------5----|-----------------5----|
----------------------|----------------------|----------------------|
----------------------|----------------------|----------------------|


  Q    Q    Q     Q       Q    Q    Q    Q       Q    Q    Q    Q     
-----------------------|--3-------------------|--6-------------------|
--7--------------------|-------3--------------|-------4--------------|
-------7---------------|------------3---------|------------5---------|
------------8----------|-----------------5----|-----------------4----|
-----------------10----|----------------------|----------------------|
-----------------------|----------------------|----------------------|


  Q    Q    Q    Q       Q    Q    Q    Q       Q    Q    Q    Q     
--5-------------------|--4-------------------|--5-------------------|
-------4--------------|-------4--------------|-------4--------------|
------------5---------|------------5---------|------------5---------|
-----------------4----|-----------------4----|-----------------4----|
----------------------|----------------------|----------------------|
----------------------|----------------------|----------------------|


  Q    Q    Q    Q       Q    Q    Q    Q       Q    Q    Q    Q     
--8-------------------|--6-------------------|--5-------------------|
-------3--------------|-------3--------------|-------3--------------|
------------3---------|------------3---------|------------3---------|
-----------------5----|-----------------5----|-----------------5----|
----------------------|----------------------|----------------------|
----------------------|----------------------|----------------------|


  Q    Q    Q    Q       Q    Q    Q    Q       Q    Q    Q    Q     
--6-------------------|--5-------------------|--3-------------------|
-------3--------------|----------------------|----------------------|
------------3---------|-------3----0---------|-------3----0---------|
-----------------5----|-----------------2----|-----------------2----|
----------------------|----------------------|----------------------|
----------------------|----------------------|----------------------|


  Q    Q    Q    Q       Q    Q    Q    Q       Q    Q    Q    Q     
--1-------------------|--0-------------------|--5-------------------|
----------------------|----------------------|-------3--------------|
-------3----0---------|-------3----0---------|------------3---------|
-----------------2----|-----------------2----|-----------------5----|
----------------------|----------------------|----------------------|
----------------------|----------------------|----------------------|


  Q    Q    Q    Q       Q    Q    Q     Q       Q    Q    Q    Q     
--3-------------------|-----------------------|--3-------------------|
-------3--------------|--7--------------------|-------3--------------|
------------3---------|-------7---------------|------------3---------|
-----------------5----|------------8----------|-----------------5----|
----------------------|-----------------10----|----------------------|
----------------------|-----------------------|----------------------|


  Q    Q    Q    Q       Q    Q    Q    Q       Q    Q    Q    Q     
--3-------------------|--1-------------------|--0-------------------|
-------1--------------|-------1--------------|-------1--------------|
------------2---------|------------2---------|------------2---------|
-----------------3----|-----------------3----|-----------------3----|
----------------------|----------------------|----------------------|
----------------------|----------------------|----------------------|


  Q    Q    Q    Q       Q    Q    Q    Q       Q    Q    Q    Q     
--1-------------------|--1-------------------|--0-------------------|
-------1--------------|----------------------|----------------------|
------------2---------|-------3----0---------|-------3----0---------|
-----------------3----|-----------------2----|-----------------2----|
----------------------|----------------------|----------------------|
----------------------|----------------------|----------------------|


  Q    Q    Q    Q       Q    Q    Q    Q       Q    Q    Q    Q     
----------------------|--0-------------------|--0-------------------|
--4-------------------|----------------------|----------------------|
-------3----0---------|-------3----0---------|-------2--------------|
-----------------2----|-----------------2----|------------3----0----|
----------------------|----------------------|----------------------|
----------------------|----------------------|----------------------|


  Q    Q    Q    Q       Q    Q    Q    Q     
----------------------|----------------------|
--3-------------------|--2-------------------|
-------2--------------|-------2--------------|
------------3----0----|------------3----0----|
----------------------|----------------------|
----------------------|----------------------|


                                             ^                   
  Q    Q    Q    W                   Q       W                   
----------------------------------|-------|--5-----------------||
--3-------------------------------|-------|--3-----------------||
-------2--------------------------|-------|--3-----------------||
------------3----0----------------|--L----|--5~----------------||
----------------------------------|-------|--------------------||
----------------------------------|-------|--------------------||




Duration Legend
---------------
W - whole
H - half
Q - quarter
E - 8th
S - 16th
T - 32nd
X - 64th
. - note dotted
|-n-|  - n-tuplets


Tablature Legend
----------------
L - tied note
x - dead note
g - grace note
(n) - ghost note
> - accentuded note
NH - natural harmonic
AH - artificial harmonic
TH - tapped harmonic
SH - semi harmonic
PH - pitch harmonic
h - hammer on
p - pull off
b - bend
br - bendRelease
pb - preBend
pbr - preBendRelease
brb - bendReleaseBend
\n/ - tremolo bar dip
\n - tremolo bar dive
-/n - tremolo bar Release up
/n\ - tremolo bar inverted dip
/n - tremolo bar return
-\n - tremolo bar Release down
S - shift slide
s - legato slide
/ -  slide into from below or out of upwards
\ -  slide into from above or out of downwards
~ - vibrato
W - wide vibrato
tr - trill
TP - tremolo picking
T - tapping
S - slap
P - pop
< - fade in
^ - brush up
v - brush down
Login or Register to remove this ad.