Great Fairy Fountain (Legend of Zelda: Ocarina of Time) Guitar/Ukulele Tab

Submitted: Feb 03, 2011 by hslesperance (Last updated: Mar 22, 2015)

5
Average: 5 (3 votes)
Download | Listen
Game: Legend of Zelda: Ocarina of Time
Composer(s): Koji Kondo
Style: Arrangement
Series: Legend of Zelda

AutoScroll: Slow | Medium | Fast
Great Fairy Fountain
The Legend of Zelda: Ocarina of Time
Composed by Koji Kondo
Tabbed by hslesperance
2/3/11


Standard Tuning


Ukulele

  Q  E. S Q  E. S   E. S E T Q  +T  S E. S
|-7--7--x-5--5--x-|-4--4-x---5--(5)-5-5--5-|
|-5--5--x-5--5--x-|-5--5-x---5--(5)-5-5--5-|
|-5--5--x-5--5--x-|-5--5-x---5--(5)-5-5--5-|
|-----------------|------------------------|


  Q  E. S Q  E. S   E. S E T Q  +T  S E. S
|-5--5--x-3--3--x-|-2--2-x---3--(3)-3-3--3--|
|-3--3--x-3--3--x-|-3--3-x---3--(3)-3-3--3--|
|-4--4--x-4--4--x-|-4--4-x---4--(4)-4-4--4--|
|-----------------|-------------------------|


  E. S E. S E. S E. S   E. S E. Q  S E. S
|-3--3-3--3-2--2-2--2-|-1--1-1--2--2-2--2-|
|-1--1-1--1-1--1-1--1-|-1--1-1--1--1-1--1-|
|-2--2-2--2-2--2-2--2-|-2--2-2--2--2-2--2-|
|---------------------|-------------------|


  E. S E. S E. S E. S   Q  E. Q  S E. S
|-2--2-2--2-0--0-0--0-|-------0--0-0--x-|
|-0--0-0--0-0--0-0--0-|-0--0--0--0-0--x-|
|-0--0-0--0-0--0-0--0-|-0--0--0--0-0--x-|
|---------------------|-1--1------------|


  Q  E. S Q  E. S   Q  E. S +H
|-7--7--x-5--5--x-|-4--4--5-(5)----|
|-5--5--x-5--5--x-|-5--5--5-(5)----|
|-5--5--x-5--5--x-|-5--5--5-(5)----|
|-----------------|----------------|


  E. S E. Q  S E +S  S   E. S S S S S +H
|-8-------7------------|-6--------6-7-(7)----|
|------6-----6-------6-|----6---6------------|
|----7---------7-(7)---|------7--------------|
|----------------------|---------------------|


   Q   E.  S Q  E.  S   E.  S E  +S  Q  S E.  S
|-10--10---x-8--8---x-|-7---7-7--(7)-8--8-8---8-|
|--8---8---x-8--8---x-|-8---8-8--(8)-8--8-8---8-|
|--9---9---x-9--9---x-|-9---9-9--(9)-9--9-9---9-|
|---------------------|-------------------------|


  Q  q  Q  q    Q  E. q  Q  +S    Q  Q  E S S Q    W
|-7--7--5--5--|-3--3--2--2--(2)-|-3--3--x---x-3--|-3----*|
|-5--5--5--5--|-5--5--5--5--(5)-|-0--0--x---x-1--|-0----*|
|-5--5--5--5--|-5--5--5--5--(5)-|-0--0--x---x-0--|-0----*|
|-------------|-----------------|-0--0--x---x-0--|-0----*|




And if you don't have a ukulele, here's a guitar version so you don't feel left out.
The guitar is in the key A Major while the ukulele is in C Major. Check the zip file for the guitar midi.


Guitar

  Q  E. S Q  E. S   E. S E T Q  +T  S E. S
|-9--9--x-7--7--x-|-6--6-x---7--(7)-7-7--7-|
|-7--7--x-7--7--x-|-7--7-x---7--(7)-7-7--7-|
|-7--7--x-7--7--x-|-7--7-x---7--(7)-7-7--7-|
|-----------------|------------------------|
|-----------------|------------------------|
|-----------------|------------------------|


  Q  E. S Q  E. S   E. S E T Q  +T  S E. S
|-7--7--x-5--5--x-|-4--4-x---5--(5)-5-5--5-|
|-5--5--x-5--5--x-|-5--5-x---5--(5)-5-5--5-|
|-6--6--x-6--6--x-|-6--6-x---6--(6)-6-6--6-|
|-----------------|------------------------|
|-----------------|------------------------|
|-----------------|------------------------|


  E. S E. S E. S E. S   E. S E. Q  S E. S
|-5--5-5--5-4--4-4--4-|-3--3-3--4--4-4--4-|
|-3--3-3--3-3--3-3--3-|-3--3-3--3--3-3--3-|
|-4--4-4--4-4--4-4--4-|-4--4-4--4--4-4--4-|
|---------------------|-------------------|
|---------------------|-------------------|
|---------------------|-------------------|


  E. S E. S E. S E. S   Q  E. Q  S E. S
|-4--4-4--4-2--2-2--2-|-1--1--2--2-2--x--|
|-2--2-2--2-2--2-2--2-|-2--2--2--2-2--x--|
|-2--2-2--2-2--2-2--2-|-2--2--2--2-2--x--|
|---------------------|------------------|
|---------------------|------------------|
|---------------------|------------------|


  Q  E. S Q  E. S   Q  E. S +H
|-9--9--x-7--7--x-|-6--6--7-(7)----|
|-7--7--x-7--7--x-|-7--7--7-(7)----|
|-7--7--x-7--7--x-|-7--7--7-(7)----|
|-----------------|----------------|
|-----------------|----------------|
|-----------------|----------------|


   E. S E. Q  S E +S  S   E. S S S S S +H
|-10-------9------------|-8--------8-9-(9)----|
|-------8-----8-------8-|----8---8------------|
|-----9---------9-(9)---|------9--------------|
|-----------------------|---------------------|
|-----------------------|---------------------|
|-----------------------|---------------------|


   Q    E.  S  Q   E.  S    E.   S  E   +S   Q   S  E.   S
|-12---12---x-10--10---x-|--9----9--9---(9)-10--10-10---10-|
|-10---10---x-10--10---x-|-10---10-10--(10)-10--10-10---10-|
|-11---11---x-11--11---x-|-11---11-11--(11)-11--11-11---11-|
|------------------------|---------------------------------|
|------------------------|---------------------------------|
|------------------------|---------------------------------|


  Q  q  Q  q    Q   E. q  Q  +S    Q  Q  E S S  Q    W
|-9--9--7--7--|-5---5--4--4--(4)-|-5--5--x---x--5--|-5---*|
|-7--7--7--7--|-5---5--5--5--(5)-|-5--5--x---x--5--|-5---*|
|-7--7--7--7--|-4---4--4--4--(4)-|-6--6--x---x--7--|-6---*|
|-------------|------------------|-7--7--x---x--7--|-7---*|
|-------------|------------------|-----------------|-----*|
|-------------|------------------|-----------------|-----*|

x - muted note

W - whole
H - half
Q - quarter
E - 8th
S - 16th
T - 32nd
X - 64th
+ - note tied to previous
. - note dotted

Uncapitalized letters represent notes that are staccato (1/2 duration)
Login or Register to remove this ad.

1 comment on Great Fairy Fountain

Can I just say a general

Can I just say a general 'hurrah' for all the ukulele tabs that have gone up lately?