Ads

Goron City (Legend of Zelda: Ocarina of Time) Guitar Tab

Submitted: Jun 10, 2011 by 60NCA10

5
Average: 5 (5 votes)
Download | Listen
Game: Legend of Zelda: Ocarina of Time
Composer(s): Koji Kondo
Style: Arrangement, Fingerstyle
Series: Legend of Zelda

Click here for a video example.

AutoScroll: Slow | Medium | Fast



               THE LEGEND OF ZELDA - OCARINA OF TIME
                         "The Goron City"


                 Original song by: Koji Kondo

                  Fingerstyle Arrangement by:
                        Gonçalo Martins
                         June 9th 2011




   Intro:

      PM-----------------------------------------         
      E  S  E.  E  E  E  Q       E  E  E  E  E  E  Q       
E||---0-----------------------|--0-----------------------||
B||------1------------1-------|-----1--1--------1--------||
G||*------------0--3----------|-----------0--3----------*||
D||*--------------------------|-------------------------*||
G||---------------------------|--------------------------||
C||---------------------------|--------------------------||    (Play Twice)


   Bass Line:

   Q.     Q    E  E  E     Q.     Q    E  E  E     
------------------------|------------------------||
------------------------|------------------------||
*-----------------------|-----------------------*||
*-----------------------|-----------------------*||
----------0----0--2--0--|---------0----0--2--0---||
---0--------------------|--0---------------------||    (Play Twice)


   Part A:

   E  S E.  E  E  E  E  E     E  E  E  E  E  E  E  E     
---0-----------------------|--0------------------------||
------1-----------1--------|-----1--1--------1---------||
*-----------0--3-----------|-----------0--3-----------*||
*--------------------------|--------------------------*||
------------0-----0--2--0--|-----------0-----0--2--0---||
---0-----------------------|--0------------------------||    (Play Twice)


   Part B:

  E  E  E  Q    E  E  E     Q.     E  E  E  E  E   
-----3-----3-------------|---------3--6--3--------|
-------------------------|------------------------|
-------------------------|------------------------|
-------------------------|------------------------|
-----------0----0--2--0--|---------0--L--0--2--0--|
--0-----L----------------|--0---------------------|


  E  E  E  Q    E  E  E     Q.     E  E  E  E  E   
-----3-----3-------------|---------3--6--3--6--3--|
-------------------------|------------------------|
-------------------------|------------------0-----|
-------------------------|------------------------|
-----------0----0--2--0--|---------0--L--0-----0--|
--0-----L----------------|--0---------------------|


   Part C:

    E  E  E  E  E  E  E  E     E  E  E  E  E  E  E  E     
|------0--------------------|-----0--0--0---------------||
|---------------3--1--------|--------------3--1---------||
|*--------------------------|--------------------------*||
|*--------------------------|--------------------------*||
|------------0-----0--2--0--|-----------0-----0--2--0---||
|---0-----------------------|--0------------------------||    (Play Twice)


   Part D:

   Q.     E  E  E  E  E     Q    E  E  E  E  E  E     
----------3--5--3--5--3--|--6----6-----5--3---------||
-------------------------|--------------------------||
*------------------0-----|-------------------------*||
*------------------------|-------------------------*||
----------0-----0-----0--|----------0-----0--2--0---||
---0---------------------|--0-----------------------||    (Play Twice)


   Part E:

  Q.     Q    E  E  E     E  E  E  E  E  E  E  E   
-----------------------|-----0--------------------|
-----------------------|--------------3--1--------|
-----------------------|--------------------------|
-----------------------|--------------------------|
---------0----0--2--0--|-----------0--L--0--2--0--|
--0--------------------|--0-----L-----------------|


  Q.     Q    E  E  E     E  E  E  E  E  E  E  E   
-----------------------|-----0--0--0--------------|
-----------------------|--------------3--1--------|
-----------------------|--------------------------|
-----------------------|--------------------------|
---------0----0--2--0--|-----------0--L--0--2--0--|
--0--------------------|--0-----L-----------------|


   Part F:


  E  E  E  E  E  E  E  E     E  E  E  E  E  E  E  E   
-----3-----3--------------|-----0--------------------|
--------------------------|--------------3--1--------|
--------0-----0-----------|--------------------------|
--------------------------|--------------------------|
-----------0--L--0--2--0--|-----------0--L--0--2--0--|
--0-----L-----------------|--0-----L-----------------|


  E  E  E  E  E  E  E  E     E  E  E  E  E  E  E  E   
-----3-----3--------------|-----0--0--0--------------|
--------------------------|--------------3--1--------|
--------0-----0-----------|--------------------------|
--------------------------|--------------------------|
-----------0--L--0--2--0--|-----------0--L--0--2--0--|
--0-----L-----------------|--0-----L-----------------|


  Part G:

  Q.     E  E  E  E  E     Q    E  E  E  E  E  E   
------------------------|-------------------------|
---------------1--------|----------1-----1--------|
------------3-----------|-------3-----3-----------|
------------------------|-------------------------|
---------0--L--0--2--0--|----------0--L--0--2--0--|
--0---------------------|--0----L-----------------|


  Q.     E  E  E  E  E     Q.     E  E  E  E  E   
------------------------|------------------------|
---------------1--------|---------------1--3--1--|
---------0--3-----------|---------0--3-----------|
------------------------|------------------------|
---------0--L--0--2--0--|---------0--L--0--2--0--|
--0---------------------|--0---------------------|


   Part A:

    E  S E.  E  E  E  E  E     E  E  E  E  E  E  E  E     
|---0-----------------------|--0------------------------||
|------1-----------1--------|-----1--1--------1---------||
|*-----------0--3-----------|-----------0--3-----------*||
|*--------------------------|--------------------------*||
|------------0-----0--2--0--|-----------0-----0--2--0---||
|---0-----------------------|--0------------------------||    (Play Twice)


   Ending:

  W                  
-------------------||
-------------------||
-------------------||
-------------------||
-------------------||
--0----------------||




Duration Legend
---------------
W - whole
Q - quarter
E - 8th
. - note dotted


Tablature Legend
----------------
L - tied note
PM - palm mute


Login or Register to remove this ad.

2 comments on Goron City

had to laugh while playing,

5

had to laugh while playing, very good tab indeed ^^

Fun!

5

Fun!