Get Spirit Stone (Legend of Zelda: Ocarina of Time) Guitar Tab

Submitted: Jan 11, 2019 by winteriscoming97

0
Download | Listen
Game: Legend of Zelda: Ocarina of Time
Composer(s): Koji Kondo
Style: Arrangement
Series: Legend of Zelda

AutoScroll: Slow | Medium | Fast
Series: Legend of Zelda
Game: Ocarina of Time
Song: Get Spititual Stone
Composer: Koji Kondo
Tabbed by: winteriscoming97


e----------10-13-10---------------------
B-------11----------11------------------
G----10----------------10---------------
D--8------------------------------------
A---------------------------------------
E---------------------------------------

e---------------------------------------
B----------9-----------13---------------
G-------10----------10------------------
D-11-11-------10-10-11------------------
A---------------------------------------
E---------------------------------------

e----------10-13-10-------10------------
B-------11----------11-------11---------
G----10----------------10-------10------
D--8-------------------------------11---
A---------------------------------------
E---------------------------------------

e------------------------12-16-12-------
B--------9---13-------12----------12----
G-----10-10-----13-13----------------13-
D--12-----------14----------------------
A---------------------------------------
E---------------------------------------

e---------------------------------------
B-----------13-15-------10--------------
G--16----10----------10-----------------
D-----12----------12--------------------
A--14----------13-----------------------
E---------------------------------------

e-------------9-12-17-21-17-21-25-27-----
B--14------10----------------------------
G--------9-------------------------------
D-----11---------------------------------
A--12------------------------------------
E----------------------------------------
Login or Register to remove this ad.