Ads

Gerudo Valley (Legend of Zelda: Ocarina of Time) Guitar Tab

Submitted: Aug 24, 2013 by JordanVS

4.9375
Average: 4.9 (16 votes)
Download | Listen
Game: Legend of Zelda: Ocarina of Time
Composer(s): Koji Kondo
Style: Arrangement, Fingerstyle
Series: Legend of Zelda

AutoScroll: Slow | Medium | Fast
Gerudo Valley                                             
The Legend Of Zelda : Ocarina Of Time
Koji Kondo
JordanVS

*This was greatly inspired by the 25th anniversary 
Symphony and a little by Kyle Landry's piano cover,so 
it's a little different than the original one.
The original ends at measure 35,the rest is just a 
bonus! :D
Anyway,don't stick only to what's written,add your own 
ideas and play it with "feeling"!


       S S S E  E  E  S S S  Q       H        Q    Q        E  E  E  E  E  E  E  E   
E||----------------5------7--9----|--L-------------------|-----2--2--2-----2-----2--|
B||-------------7-----6-9----9----|--L-------------------|-----2--2--2-----2-----2--|
G||--------4-7--------------10----|--L-------------------|-----2--2--2-----2-----2--|
D||------6------------------------|----------------------|--------------4-----------|
A||--4g5--------------------------|----------------------|--------------------4-----|
E||-------------------------------|-----------9----L\----|--2-----------------------|


  E  E  E  E  E  E  E  E     E  E  E  E  E  E  E  E     E  E  E  E  E  E  E  E   
-----2--2--2-----2-----2--|-----0--0--0-----0-----0--|-----4--4--4-----4-----4--|
-----3--3--3-----3-----3--|-----0--0--0-----0-----0--|-----6--6--6-----6-----6--|
-----2--2--2-----2-----2--|-----1--1--1-----1-----1--|-----6--6--6-----6-----6--|
--------------4-----------|--------------2-----------|--------------6-----------|
--5-----------------5-----|--------------------2-----|--4-----------------4-----|
--------------------------|--0-----------------------|--------------------------|


                           ^    v    ^                             ^    v    ^    
                           |----3----|                             |----3----|    
    S S S S E  S S S S E   E    E    E      S S S S E  S S S S E   E    E    E    
|-------2-4-5------2-4-5-----------------|------2-4-5------2-4-5--(2)--(2)--(2)--|
|-----2----------2-----------------------|----3----------3---------3----3----3---|
|*------------------------(2)--(2)--(2)--|-------------------------2----2----2---|
|*-------------------------4----4----4---|--0----------0-----------0----0----0---|
|--------------------------4----4----4---|---------------------------------------|
|---2----------2-----------2----2----2---|---------------------------------------|



                                       1.
                         ^    v    ^                                  
                         |----3----|                                  
  S S S S E  S S S S E   E    E    E      S S S S Q    E  E  E  E     
------0-2-4------0-2-4-----------------|----2-4-2-------------------||
----0----------0-----------------------|----------6-----------------||
------------------------(1)--(1)--(1)--|----------6----------------*||
-------------------------2----2----2---|---------------------------*||
-------------------------2----2----2---|--4-------4----4--2--0------||
--0----------0-----------0----0----0---|------------------------4---||


2.

               ^  ^  v  ^             ^                     ^                           
                  |--3--|                                                               
  S S S S Q    E  E  E  E  E       E  E.  E.  E.  E.  E     E  E  S  S  S E.  E  E  E   
----5-7-5-4-------------------||----------5---4---2------|--0-----0h-2p-0--------------|
----------6----6--6--6--6--L--||------2---2---2---2---2--|--3-------------3---3--------|
---------------6--6--6--6--L--||*-----2---------------2--|--2--2----------2------2-----|
---------------6--6--6--6--L--||*-----4-----------4------|--0-----------------------0--|
--4-------4----4--4--4--4--L--||----------------------4--|-----------------------------|
------------------------------||---2---------------------|-----------------------------|

                                                    1.

     ^                     ^                              ^                   
  E  E.  E.  E.  E.  E     E  E  E.  S S S E  E  E     E  E.  E.  E.  E.  E   
---------4---2---0------|--------------0------------|---------5---4---2------|
-----0---5---3-------3--|--2---------3---3-2--------|-----2---2---2---2---2--|
-----1---------------1--|--1-----1------------1-----|-----2---------------2--|
-----2-----------2------|--3--3------------------3--|-----4-----------4------|
------------------------|--4---------------4--------|---------------------4--|
--0---------------------|---------------------------|--2---------------------|


  ^                             ^                        ^                                     
                                                         |--3--|  |--3--|  |--3--|  |-3|       
  E  E  S  S  S E.  E  E  E     Q    E  E  E.  E.  E     E  E  E  E  E  E  E  E  E  E  Q       
--0-----0h-2p-0--------------|--0-------4--2----------|--------------1-----------------------||
--3-------------3---------3--|--0-------5--3-------3--|--2--------2-----2--------------------||
--2--2----------2---2-----2--|--1------------------1--|--1-----1-----------1----------------*||
--0-----0--------------0-----|--2---------------------|--3--3-----------------3-----3-------*||
-----------------------------|------------------------|--4-----------------------4-----4-----||
-----------------------------|-------0---------0------|--------------------------------------||


2.

  E  S S S S E  S S S E  E  S    E  S S  S S E  S S  S E  S E     Q.     E  Q.     E   
------------------------------|--------------------------------|--0------4--2---------|
-----------2----------2-------|------------3-----------3----3--|--0------5--3------3--|
---------2----------2---------|-------1s-2--------1s-2------2--|--1----------------1--|
-----4-6--------4-6-----------|-----4-----------4--------------|----------------------|
----------------------------4-|--5-----------5------------5----|----------------------|
--2----------2-----------2----|--------------------------------|--0---------0---------|


  ^      ^  ^  v  ^          ^                               ^                       
            |--3--|                                                                  
  Q.     E  E  E  E  Q       S  S  Q.     S S S S S S S S    S S Q    E  E  E  Q     
---------1--1--1--1--L----|--5p-4h-5------------4-5-7-5-4-|--5-4-5------------------|
--2------2--2--2--2--L----|--7----------------7-----------|--3--------------3-------|
--1------1--1--1--1--L----|--6--------------6-------------|--2-----------2-----2----|
--3------3--3--3--3--L----|--4------------4---------------|--0--------0-------------|
--4------4--4--4--4--L----|-------------------------------|-------------------------|
--------------------------|-------------------------------|-------------------------|


  ^                                                       ^                           
  S S Q.     S S S S S S S S    S S Q    E  E  E  Q       S S Q.     S S S S S S S S  
--4---4--------------4-5-4---|--4----------------------|--5-4-5------------4-5-7-5-4-|
--5-7------------5-7-------7-|----7-6-------------6----|--7-7-7----------7-----------|
--4------------4-------------|------6----------6-------|--6------------6-------------|
-----------------------------|--------------6----------|--4----------4---------------|
-----------------------------|--4---4----4-------------|-----------------------------|
--0----------0---------------|-------------------------|-----------------------------|


  ^                         ^                                                          
  S S Q    E  E  E  Q       S S Q.     E  S  S  S S  S  S    S  S  Q.     E  E  E  E   
--5-4-5------------------|--4---4-----------------9-10-12-|--9-----9------------------|
--3-3-3----------3-------|--5-7-5---------9-10-12---------|----12--9------------------|
--2-----------2-----2----|--4-4-----------9---------------|-------10------------------|
--0--------0-------------|--------------------------------|---------------------------|
-------------------------|--------------------------------|---------------------------|
-------------------------|--0----------0------------------|--------9------9--7--5--4--|


  E  S E  S E  E  S E  S E     E  S E  S E  E  S E  S E     E  S E  S E  E  S E  E.   
------------------5-4----5--|------------------5-4----5--|------------------7-6--7---|
-------------------------2--|-------------------------3--|-----------------------9---|
-----2-1----2------------2--|-----2-1----2------------2--|-----------------------9---|
----------------------------|--0-------0----0-------0----|-----9-8----9--------------|
----------------------------|----------------------------|---------------------------|
--2-------2----2-------2----|----------------------------|--0-------0----0-------0---|


                                      |--3--|  |--3--|  |--3--|  |--3--|   
   S  S  S  E   E   E   E  S Q        E  E  E  E  E  E  E  E  E  E  E  E   
--10-12-10--9----------------------|--------------------------------------|
------------9--------------9-L\----|--------------------------------------|
-----------10----------10----------|--2--------2--------2--2-----------2--|
-------------------11--------------|-----4--------4-----------4-----4-----|
---------------11------------------|--------4--------4-----------4--------|
---9--------9--------------9-L\----|--2--------2--------2--2--------------|


  |--3--|  |--3--|  |--3--|  |--3--|     |--3--|  |--3--|  |--3--|  |--3--|   
  E  E  E  E  E  E  E  E  E  E  E  E     E  E  E  E  E  E  E  E  E  E  E  E   
--------------------------------------|--------------------------------------|
--------------------------------------|--0--------0--------0--0-----------0--|
--2--------2--------2--2-----------2--|-----1--------1-----------1-----1-----|
-----4--------4-----------4-----4-----|--------2--------2-----------2--------|
--5-----5--------5--5--5-----5--------|--------------------------------------|
--------------------------------------|--0--------0--------0--0--------------|


  |--3--|  |--3--|  |--3--|  |--3--|                                                               
  E  E  E  E  E  E  E  E  E  E  E  E     S S S S E  S S S S E  Q       S S S S E  S S S S E  Q     
--------------------------------------|--------4-5--------4-5-------|------2-4-5------2-4-5-------|
--2--------2--------2--2-----------2--|------7----------7-----------|----3----------3-------------|
-----1--------1-----------1-----1-----|----6----------6-------------|-----------------------------|
--------3--------3-----------3--------|--4----------4----------4----|--0----------0----------0----|
--4--------4--------4--4--------------|-----------------------------|-----------------------------|
--------------------------------------|-----------------------------|-----------------------------|


  S S S S E  S S S S E  Q       S S S S Q    E  E  E  E     E  E  E  E  E  E  E  E   
------0-2-4------0-2-4-------|----2-4-2------------------|-----5--4--5--2--5-----5--|
----0----------0-------------|----------6----------------|--------------------5-----|
-----------------------------|---------------------------|--------------------------|
--2----------2----------2----|---------------------------|--------------4-----------|
-----------------------------|--4-------4----4--2--0-----|--------------------------|
-----------------------------|------------------------4--|--2-----------------------|


  E  E  E  E  E  E  E  E     E  E  E  E  E  E  E  E     E  E  E  E  E  E  E  E   
-----5-----5-----5-----5--|-----7--6--7-----7-----7--|-----7-----7-----7-----7--|
--3-----2-----0-----------|--------------9-----7-----|--6-----------------------|
--------------------2-----|--------------------------|--------7-----6-----4-----|
--0-----------0-----------|--------------------------|--------------------------|
--------------------------|--------------7-----------|--4-----------4-----------|
--------------------------|--0-----------------------|--------------------------|


  S S S S E  S S S S E  E  E     S S S S E  S S S S E  E  E     S S S S E  S S S S E  E  E   
--------4-5--------4-5--------|------2-4-5------2-4-5--------|------0-2-4------0-2-4--------|
------7----------7------------|----3----------3--------------|----0----------0--------------|
----6----------6--------------|------------------------------|------------------------------|
--4----------4----------4--4--|--0----------0----------0--0--|--2----------2----------2--2--|
------------------------------|------------------------------|------------------------------|
------------------------------|------------------------------|------------------------------|


                              ^                             ^                        
  S S S S E  E  E  E  Q       S S Q.     S S S S S S S S    S S Q    E  E  E  E  E   
----5-7-5-4----------------|-----------------------------|--------------------------|
----------6--------6-------|--1-0-1------L-----0-1-3-1-0-|--1-0-1-------------------|
----------------6-----6----|--2--------------2-----------|--2-----------------2-----|
-------------6-------------|--2------------2-------------|-----------------3-----3--|
--4-------4----------------|--0----------0---------------|--------------3-----------|
---------------------------|-----------------------------|--1--------1--------------|


  ^                                                                
                                       |--3--|  |--3--|  |--3--|   
  S S Q.     S S S S S S S S    S S E  E  E  E  E  E  E  E  E  E   
---------------------------3-|--0-1-0--------0-----0--------------|
--3---3--------------3-5-6---|--0-0-0-----0-----0-----0-----------|
--3-5------------3-5---------|---------1-----------------1--------|
--3------------3-------------|--2---------------------------2--L--|
-----------------------------|------------------------------------|
--6----------6---------------|------------------------------------|


  |--3--|  |--3--|  |--3--|  |--3--|     |--3--|  |--3--|  |--3--|  |--3--|   
  E  E  E  E  E  E  E  E  E  E  E  E     E  E  E  E  E  E  E  E  E  E  E  E   
--------------------------------------|--------------------------------------|
--1--------1--------1--1-----------1--|--1--------1--------1--1-----------1--|
-----2--------2-----------2-----2-----|-----2--------2-----------2-----2-----|
--------2--------2-----------2--------|--------3--------3-----------3--------|
--0--------0--------0--0--------------|--------------------------------------|
--------------------------------------|--1--------1--------1--1--------------|


  |--3--|  |--3--|  |--3--|  |--3--|     |--3--|  |--3--|  |--3--|  |--3--|   
  E  E  E  E  E  E  E  E  E  E  E  E     E  E  E  E  E  E  E  E  E  E  E  E   
--------------------------------------|--0--------0--------0--0-----------0--|
--3--------3--------3--3-----------3--|-----0--------0-----------0-----0-----|
-----4--------4-----------4-----4-----|--------1--------1-----------1--------|
--------5--------5-----------5--------|--2--------2--------2--2--------------|
--------------------------------------|--------------------------------------|
--3--------3--------3--3--------------|--------------------------------------|


                             ^    v    ^                               ^    v    ^    
                             |----3----|                               |----3----|    
    S S S S  E  S S S S  E   E    E    E      S S S S  E  S S S S  E   E    E    E    
|------------------------------------------|-----------------------------------------|
|---------0h-1--------0h-1--(1)--(1)--(1)--|--------0h-1--------0h-1-----------------|
|*------2-----------2--------2----2----2---|------2-----------2-------(2)--(2)--(2)--|
|*----2-----------2----------2----2----2---|----3-----------3----------3----3----3---|
|---0-----------0------------0----0----0---|---------------------------3----3----3---|
|------------------------------------------|--1-----------1------------1----1----1---|



                                   1.                             2.
                          ^  v  ^                                                 ^  ^  v  ^       
                          |--3--|                                                    |--3--|       
  S S S  S E  S S S  S E  E  E  E     S S  S S Q    E  E  E  E       S S  S S E.  E  E  E  E  E.   
-----------------------------------|-----------------------------||---------------0--0--0--0--L---|
-----------0-----------0-----------|-----------------------------||----1h-3-1-0---0--0--0--0--L---|
------0h-2--------0h-2----0--0--0--|----2h-4-2-1----------------*||-----------1---1--1--1--1--L---|
----0-----------0---------0--0--0--|-----------2----2--0--------*||---------------2--2--2--2--L---|
--------------------------2--2--2--|----------------------3--2---||-------------------------------|
--3-----------3-----------3--3--3--|--0--------------------------||--0--------0-------------------|


                           ^                                                    
  E  E.  E.  E.  E.  E     E  E  S  S  S E.  E  E  E     E  E.  E.  E.  E.  E   
------------------------|-----------------------------|------------------------|
---------1---0----------|-----------------------------|---------0--------------|
---------2-------2------|--0-----0h-2p-0--------------|---------0---2---0------|
-----2---------------2--|----------------3---3--------|-----0---------------3--|
--0------------------0--|-----3----------3------3-----|------------------------|
------------------------|--1-----1-----------------1--|--3------------------3--|


  ^                                                     ^                           
  E.  E  E  S  S S E  E  E     E  E.  E.  E.  E.  E     E  E  S  S  S E.  E  E  E   
----------------------------|---------8---7---5------|--3-----3h-5p-3--------------|
----------------------------|-----5---5---5---5---5--|--6-------------6---6-----6--|
----------------------------|-----5---------------5--|--5--5----------5------5--5--|
--2---------3h-5-3-2--------|------------------------|--3-----------------------3--|
--2------2------------2-----|--0----------0----------|-----------------------------|
--0---0------------------4--|------------------------|-----------------------------|


  ^                      ^                                                                     
                         |--3--|  |--3--|  |--3--|  |--3--|                                    
  Q.     E  Q.     E     E  E  E  E  E  E  E  E  E  E  E  E     E  S S  S S E  S S  S E  E  S  
--3------7--5------1--|--0--------0--------------------------|------------0-----------0-------|
--3------3--3------0--|--0-----0-----0--------0--------------|-------0h-1--------0h-1---------|
--4-------------------|--1--1-----------1--------1-----------|-----2-----------2--------------|
----------------------|--2-----------------2--------2-----2--|------------------------------2-|
----------------------|--------------------------------2-----|--0-----------0------------0----|
--3---------3---------|--------------------------------------|--------------------------------|


                                                          ^      ^  ^  v  ^        
                                                                    |--3--|        
  E  S S  S S E  S S  S E  S E     Q.     E  Q.     E     Q.     E  E  E  E  Q     
------------1-----------1----1--|--3------7--5---------|--0-----------------------|
-------0h-1--------0h-1------1--|--3------3--3------6--|--0-----------------------|
-----2-----------2-----------2--|--4----------------4--|--1------1--1--1--1--L----|
--3-----------3------------3----|----------------------|--2------2--2--2--2--L----|
--------------------------------|----------------------|---------2--2--2--2--L----|
--------------------------------|--3---------3---------|---------0--0--0--0--L----|


  ^                                ^                             ^                             
                                                |--3--|                                        
  S  S  Q.     S S S S  S S S S    S  S Q    E  E  E  E  Q       S S Q.     S S S  S S  S S S  
--------------------------------|-----------------------------|-------------------------------|
--1p-0--1------------0h-1-3-1-0-|--1p-0-1---------------------|--0---0---------------0h-1-0---|
--2-----L----------2------------|--2---------------------2----|--0-2------------0h-2--------2-|
--2-----L--------2--------------|------------------3-----3----|--0------------0---------------|
--0------------0----------------|---------------3-----3-------|-------------------------------|
--------------------------------|--1---------1----------------|--3----------3-----------------|


                                   ^                                ^                           
         |--3--|  |--3--|                                                        |--3--|        
  S S E  E  E  E  E  E  E  Q       S  S Q.     S S S S  S S S  S    S  S Q    E  E  E  E  Q     
------------------------0--L----|--------------------------------|-----------------------------|
--0------------------0----------|--1p-0-1------L-----0h-1-3-1p-0-|--1p-0-1---------------------|
----2-1-----------1-------------|--2---------------2-------------|--2---------------------2----|
---------2-----2----------------|--2-------------2---------------|------------------3-----3----|
------------2-------------------|--0-----------0-----------------|---------------3-----3-------|
--0-----------------------------|--------------------------------|--1---------1----------------|


  ^                                ^    ^  ^  v  ^                                     
                                           |--3--|                                     
  S S Q.     E  S S S S S S    S S Q    E  E  E  E  Q       E  S E  S E  E  S E  S E   
----------------------0-1-3-|--0---0---------------------|------------------8-7----8--|
--0---0---------0-1-3-------|----3-0---------------------|-------------------------5--|
--0-2-----------0-----0-----|------1----1--1--1--1--L----|-----5-4----5------------5--|
--0-------------------------|-----------2--2--2--2--L----|----------------------------|
----------------------------|-----------2--2--2--2--L----|--0-------0----0-------0----|
--3----------3--------------|--0--------0--0--0--0--L----|----------------------------|


  E   S E  S  E  E  S  E  S  E      E   S  E   S  E   E   S  E   E.   
--------------------8--------8--|------------------------10-----10---|
----------------------12----10--|---------------------------14--12---|
----------------------------10--|-------------------------------12---|
-----10-9----10-----------------|------12-11-----12------------------|
--8--------8-----8--------8-----|--10---------10-----10---------10---|
--------------------------------|------------------------------------|


                                                      ^                        
   S  S  S  S Q     E   E  E  E     H        E  E  E  E     W                  
--13-15-13-12-L------------------|--------------5--7--8--|--L----------------||
-----------12-L------------------|-----------5--------5--|--L----------------||
-----------13-L------------------|--------------------5--|--L----------------||
---------------------------------|-----------------------|-------------------||
---------------------------------|--0--------------------|-------------------||
--12-------12-L----12--10--8--7--|-----------------------|-------------------||




Duration Legend
---------------
W - whole
H - half
Q - quarter
E - 8th
S - 16th
. - note dotted
|-n-|  - n-tuplets


Tablature Legend
----------------
L - tied note
g - grace note
h - hammer on
p - pull off
S - shift slide
s - legato slide
^ - brush up
v - brush down
Login or Register to remove this ad.

3 comments on Gerudo Valley

3 hard 5 me

5

3 hard 5 me

This definitely got me in the

5

This definitely got me in the flamenco/gypsy guitar mood! Thank you for the tab, and for encouraging playing around with it. I think this piece really does fit the flamenco tradition, where you basically have a very dramatic chord progression to work with, and you can come up with all *kinds* of variations.

So epic.

5

Took a while but BAM! Got it.
Such a fcking EPIC piece, cheers mate!

U are a Legend