Ads

Fairy Fountain (Legend of Zelda: Ocarina of Time) Guitar Tab

Submitted: Dec 28, 2012 by fanapathy

5
Average: 5 (1 vote)
Download | Listen
Game: Legend of Zelda: Ocarina of Time
Composer(s): Koji Kondo
Style: 2 or more instruments, Alternate picking, Transcription
Series: Legend of Zelda

AutoScroll: Slow | Medium | Fast
Title: Fairy Fountain
Artist: Legend of Zelda
Music: Koji Kondo
Tabber: fanapathy
Tempo = 78
Nylon Guitar

Legend
L - tied note
x - dead note
h - hammer on/pull off
b - bend
s - slide
~ - vibrato
g - ghost note
> - accentuated note
t - trill
M - palm mute
. - staccato
P - popping (bass)
S - slapping (bass)
+ - tapping
W - wide vibrato
< - fade in
w - whammy bar
= - tremolo picking
v - brush up
^ - brush down
V - pick stroke up
n - pick stroke down


E |----------|----------|-----0----|
B |----------|----------|--3-------|
G |----------|--0--3----|----------|
D |-----2----|----------|----------|
A |--3-------|----------|----------|
E |----------|----------|----------|


--------------------------------------8-------------|
-----------10L---------10-------10-8-----10-8-------|
--------7--------------------7-----------------7----|
-----8----------------------------------------------|
----------------------------------------------------|
----------------------------------------------------|


--------------------------------------8-------------|
-----------8L----------8--------8--6-----8--6-------|
--------5--------------------------------------5----|
-----7-----------------------7----------------------|
----------------------------------------------------|
----------------------------------------------------|


--------------------------------------3-------------|
-----------6L----------6--------6--5-----5----------|
--------3-----------------------------------5--3----|
-----5-----------------------5----------------------|
----------------------------------------------------|
----------------------------------------------------|


--------------------------------------------8--6----|
-----------5L----------5--------5-----8--6----------|
--------2--------------------------7----------------|
-----3-----------------------7----------------------|
----------------------------------------------------|
----------------------------------------------------|


--------------------------------------10------------|
-----------10L---------10-------10-8-----10-8-------|
--------7--------------------------------------7----|
-----8-----------------------8----------------------|
----------------------------------------------------|
----------------------------------------------------|


--------------------------------------11-10---------|
-----------13L---------13-------13-10-------13-10---|
----------------------------------------------------|
--------10------------------------------------------|
-----12----------------------12---------------------|
----------------------------------------------------|


----------------------------------------------------|
-----------11L---------11-------11-10-13-11---------|
--------------------------------------------12------|
--------12-------------------------------------12---|
-----13----------------------13---------------------|
----------------------------------------------------|


--------------------------------------12-10-15-12---||
-----------11L---------11-------11------------------||
--------12-------------------------12---------------||
-----10----------------------10---------------------||
----------------------------------------------------||
----------------------------------------------------||

<><><><><><><><><><><><><><><><><><><><><><><><><><><><><><><><><>

Title: Fairy Fountain
Artist: Legend of Zelda
Music: Koji Kondo
Tabber: fanapathy
Tempo = 78
Octaved Arpeggios

Legend
L - tied note
x - dead note
h - hammer on/pull off
b - bend
s - slide
~ - vibrato
g - ghost note
> - accentuated note
t - trill
M - palm mute
. - staccato
P - popping (bass)
S - slapping (bass)
+ - tapping
W - wide vibrato
< - fade in
w - whammy bar
= - tremolo picking
v - brush up
^ - brush down
V - pick stroke up
n - pick stroke down


E |-----------------------------------------------------------------------------
B |-----------------------------------------------------------------------------
G |--------------------------------------------7L----------7--------------------
D |--------------------------------8--------------------------------------------
A |--------------------10-------------------------------------------------------
E |--12-------------------------------------------------------------------------


--------------------------------------------------------------------------------
---------------------------------------------------------------------5----------
------------------------------------------------------------7-------------------
---------------------------------------------------8----------------------------
------------------------------------------10------------------------------------
---------------------------------12---------------------------------------------


---------------------------------------------------------------|
---------------------------------------------------------------|
---------------------------------------------------------------|
---------------------------------------------------------------|
---------------------------------------------------------------|
---------------------------------------------------------------|


----------------------------------------------------------------------------|
--------------------------------------------------11------------------------|
--------------12-------------------------------12---------------------------|
-----------12-------------------------------12------------------------------|
--------13-------------------------------13---------------------------------|
--15----------------------------------15------------------------------------|


--------------------------------------------------------------------------------
--------------------------------------15----------------------------------------
-----------------------------15-------------------------------------------------
--------------------17----------------------------------------------------------
-----------17-------------------------------------------------------------------
--18----------------------------------------------------------------------------


------------------------------------------------------------------------12L-----
------------------------------------------------------------15------------------
------------------------------------------------15------------------------------
------------------------------14------------------------------------------------
--------------------------------------------------------------------------------
--------------------------------------------------------------------------------


----12------------------------------------------------------|
------------------------------------------------------------|
------------------------------------------------------------|
------------------------------------------------------------|
------------------------------------------------------------|
------------------------------------------------------------|


--17----------15----------14----------15------------|
-----15----------15----------15----------15---------|
--------15----------15----------15----------15------|
-----------17----------17----------17----------17---|
----------------------------------------------------|
----------------------------------------------------|


--15----------13----------12----------13------------|
-----13----------13----------13----------13---------|
--------14----------14----------14----------14------|
-----------15----------15----------15----------15---|
----------------------------------------------------|
----------------------------------------------------|


--13----------12----------11----------12------------|
-----11----------11----------11----------11---------|
--------12----------12----------12----------12------|
-----------14----------14----------14----------14---|
----------------------------------------------------|
----------------------------------------------------|


--12----------10----------9-----------10------------|
-----10----------10----------10----------10---------|
--------10----------10----------10----------10------|
-----------12----------12----------12----------12---|
----------------------------------------------------|
----------------------------------------------------|


--17----------15----------14----------15------------|
-----15----------15----------15----------15---------|
--------15----------15----------15----------15------|
-----------17----------17----------17----------17---|
----------------------------------------------------|
----------------------------------------------------|


--18----------17----------16----------17------------|
-----16----------16----------16----------16---------|
--------17----------17----------17----------17------|
-----------16----------16----------16----------16---|
----------------------------------------------------|
----------------------------------------------------|


--20----------18----------17----------18------------|
-----15----------15----------15----------15---------|
--------15----------15----------15----------15------|
-----------17----------17----------17----------17---|
----------------------------------------------------|
----------------------------------------------------|


--17----------15----------13----------12------------||
----------------------------------------------------||
-----15-12-------15-12-------15-12-------15-12------||
-----------14----------14----------14----------14---||
----------------------------------------------------||
----------------------------------------------------||
Login or Register to remove this ad.