Epona's Song (Legend of Zelda: Ocarina of Time) Ukulele Tab

Submitted: Feb 03, 2011 by pixelmuzik (Last updated: Feb 03, 2011)

5
Average: 5 (1 vote)
Download | Listen
Game: Legend of Zelda: Ocarina of Time
Composer(s): Koji Kondo
Style: Transcription
Series: Legend of Zelda

AutoScroll: Slow | Medium | Fast
Composed by: Koji Kondo
Game: The Legend of Zelda the Ocarina of Time
Tabbed by: pixelmuzik (Timothy Woina)
Contact at: [email protected]

A|--5--------5--------5----------------------2--5--2---5--5--4--2----
E|-------------------------------------------------------------------
C|----------------------------------6--5--6--------------------------
G|-----4--2-----4--2----4--2--4--2---------------------------------2-
Login or Register to remove this ad.

2 comments on Epona's Song

Different

I prefered this method, using your thumb to hit the 2 on G or barring it

A|--5--2-----5--2-----5--2----2--------------2--5--2---5--5--4--2----
E|-------------------------------------------------------------------
C|----------------------------------6--5--6--------------------------
G|--------2--------2-------2-----2---------------------------------2-

Slight modification.

What about this?

A|--5--2--0--5--2--0--5--2--0--2--0-----------2--4--5--5--5--4--2--0-
E|-----------------------------------6--5--6-------------------------
C|-------------------------------------------------------------------
G|-------------------------------------------------------------------

and then the second time through go up to 7 rather then down to 4.

A|--5--7--5-
E|----------
C|----------
G|----------