Ads

Bolero of Fire (Legend of Zelda: Ocarina of Time) Guitar Tab

Submitted: Jan 22, 2014 by the_mediocre_mu...

5
Average: 5 (4 votes)
Download | Listen
Game: Legend of Zelda: Ocarina of Time
Composer(s): Koji Kondo
Style: Transcription
Series: Legend of Zelda

AutoScroll: Slow | Medium | Fast
Tabbed by: Anthony

Tuning: Standard

Date: 01/21/2014 (Friday, January 17th, 2014)

Composer: Koji Kondo

e: -----------------------------------------------------------------
B: -----------------------------------------------------------------
G: ----------------------2--------2---------------------------------
D: ---3---0---3---0--------3--------3-------------------------------
A: -----------------------------------------------------------------
E: -----------------------------------------------------------------

e: ---1--------1--------5--------5---------------------------------
B: --------3--------3--------6--------6----------------------------
G: ----------------------------------------------------------------
D: ----------------------------------------------------------------
A: ----------------------------------------------------------------
E: ----------------------------------------------------------------

e:  ---------------------------------------------------------------
B: ----------------------------------------------------------------
G: ---0--------0----------3--0-----3--0----------------------------
D: --------2--------2----------------------------------------------
A:  ---------------------------------------------------------------
E:  ---------------------------------------------------------------

e: -----------------------------------1------1------5------5------3------3---
B: -------------------3------3----------3------3------5------5------2------2-
G: ---2------2----------2------2---------------------------------------------
D: -------3------3-----------------------------------------------------------
A:  -------------------------------------------------------------------------
E:  -------------------------------------------------------------------------

e: ---1--------------------------------------------------------------
B: ------------------------------------------------------------------
G: --------2---------------------------------------------------------
D: -------------3---2---0--(ring)------------------------------------
A: ------------------------------------------------------------------
E: ------------------------------------------------------------------
Login or Register to remove this ad.

1 comment on Bolero of Fire

Great

5

Nice and easy,and it sounds correct to me,too.
Well done :)