Picori Festival (Legend of Zelda: The Minish Cap) Guitar Tab

Submitted: Jun 09, 2012 by hslesperance

4.5
Average: 4.5 (2 votes)
Download | Listen
Game: Legend of Zelda: The Minish Cap
Composer(s): Mitsuhiko Takano
Style: Transcription
Series: Legend of Zelda

AutoScroll: Slow | Medium | Fast
Picori Festival
Legend of Zelda: The Minish Cap
Composed by Mitsuhiko Takano
Tabbed by hslesperance
6/9/12

Standard Tuning


e-------------------7--9-------------------------------
B------10--10--8-10-------10----8--10--7--8-----7------
G---7----------------------------------------9-----7---
D------------------------------------------------------
A------------------------------------------------------
E------------------------------------------------------

e-------------------7--9-------------------------------
B------10--10--8-10-------10----8----7-----------------
G---7-----------------------------------9-6-7----------
D------------------------------------------------------
A------------------------------------------------------
E------------------------------------------------------
Play above measures 2x

e------------------------------------------------------
B-------------7-8--7-----------------------------------
G---7----7--9---------9--7--6--6---6----6--6---6-------
D--------------------------------9-----------9---------
A------------------------------------------------------
E------------------------------------------------------

e--------------------------------------7---------------
B-------------7-8--7-------------7--7------------------
G---7----7--9---------9--7--9---------------------6----
D-------------------------------------------5-7-9------
A------------------------------------------------------
E------------------------------------------------------
Login or Register to remove this ad.